Acordes de Guitarra » P »Las Pastillas del Abuelo » Ama a quien llora por tí (Tab)

Ama a quien llora por tí
Las Pastillas del Abuelo

Letras, Acordes y Tabs para Guitarra, Bajo y Ukulele

  •                               D/D4/D  A/A5/A9  E   /E5/E
    
    E|-------0------------0-----|-2-3--2--0----3---0-0-----0-0-x-|
    B|----------------------0---|-3-3--3--2----2---0-0-----0-0-x-|
    G|-0h1-----1----0h1-------1-|-2-2--2--2-2------1-1-----1-1-x-|
    D|-----------2------2-------|-0-0--0--2-2------2-2--2--2-2-x-|
    A|------------------2-------|---------0-0------2-2--2--2-2-x-|
    E|-----0------------0-------|------------------0-0--0--0-0-x-|
    
    
    
    E|----------0----------------0-----|
    B|------------0----------------0---|
    G|-0h1-1-------------0h1-1---------|
    D|-------2-------2---------2-----2-|
    A|-------2-------2---------2-----2-|
    E|-------0-------0---------0-----0-|
    
    
    
    
  • B/- - - - - 2 -
    G/-0h1- - - - -  X 2 y luego D / Dsus4 / D / A / Asus4 / A / E
    D/- - - - - - 2
    A/- - - - - - 2
    E/- - - 0 - - -
    
    
    
    
    
    E                      D/Dsus4 A/Asus4/A   E
    suavemente desparramado en algún cordón
    E                      D/Dsus4 A/Asus4/A   E
    con una quilmes al lado de mi corazón
    E                          D/Dsus4 A/Asus4/A   E
    un par de poemas reprimidos que ya no sirven más
    E                     D/Dsus4 A/Asus4/A   E
    que te aseguro nena, el no te los va a dar
    E
    y yo ahora sé que no,
    
  •                               D/D4/D  A/A5/A9  E   /E5/E
    
    E|-------0------------0-----|-2-3--2--0----3---0-0-----0-0-x-|
    B|----------------------0---|-3-3--3--2----2---0-0-----0-0-x-|
    G|-0h1-----1----0h1-------1-|-2-2--2--2-2------1-1-----1-1-x-|
    D|-----------2------2-------|-0-0--0--2-2------2-2--2--2-2-x-|
    A|------------------2-------|---------0-0------2-2--2--2-2-x-|
    E|-----0------------0-------|------------------0-0--0--0-0-x-|
    
    
    
    E|----------0----------------0-----|
    B|------------0----------------0---|
    G|-0h1-1-------------0h1-1---------|
    D|-------2-------2---------2-----2-|
    A|-------2-------2---------2-----2-|
    E|-------0-------0---------0-----0-|
    
    
    
    
  •    E                 D D4 D  A        E
    
    E|-------0------|  |-2-3--2--0-0------0-0--0--0-0-x-|
    B|---------0----|  |-3-3--3--2-2------0-0--0--0-0-x-|
    G|-0h1-------1--|X2|-2-2--2--2-2------1-1--0--1-1-x-|
    D|--------------|  |-0-0--0--2-2------2-2--2--2-2-x-|
    A|--------------|  |---------0-0------2-2--2--2-2-x-|
    E|-----0--------|  |------------------0-0--0--0-0-x-|
    
    
    
    Verso
    
    E                        D     A     E
     Suavemente desparramado en algún cordón
                             D     A    E
     Con una quilmes al lado de mi corazón
                                  D            A    E
     Un par de poemas reprimidos que ya no sirven más
                         D         A        E
    
  •    E   D  Dsus4  A  A9   G
    e:-0-|-2-|--3--|-0-|-0-|-3-|
    B:-0-|-3-|--3--|-2-|-2-|-3-|
    G:-1-|-2-|--2--|-2-|-0-|-0-|
    D:-2-|-0-|--0--|-2-|-2-|-0-|
    A:-2-|-x-|--x--|-0-|-0-|-2-|
    E:-0-|-x-|--x--|-x-|-0-|-3-|
    
    RASGUEO
    
       E*                         D4 D     A   A9    E
    e:-----V-A-A-x-V-A-x-V-A-V-A---V-A-V---A-V-A-V---V-A-x-V-A-V-A--
    B:-----V-A-A-x-V-A-x-V-A-V-A---V-A-V---A-V-A-V---V-A-x-V-A-V-A--
    G:-0h1-V-A-A-x-V-A-x-V-A-V-A---V-A-V---A-V-A-V---V-A-x-V-A-V-A-- A = arriba
    D:-----V-A-A-x-V-A-x-V-A-V-A---V-A-V---A-V-A-V---V-A-x-V-A-V-A-- V = abajo
    A:-----V-A-A-x-V-A-x-V-A-V-A---x-x-x---A-V-A-V---V-A-x-V-A-V-A--
    E:-----V-A-A-x-V-A-x-V-A-V-A---x-x-x---A-V-A-V---V-A-x-V-A-V-A--
    
    INTRO
    
    
  • +
    ¡Colabora con nosotros!
    Envíanos tu versión de esta canción

Letra de Ama a quien llora por tí
G/-0h1- - - - - X 2 y luego D / Dsus4 / D / A / Asus4 / A / E
D/- - - - - - 2
E/- - - 0 - - -
suavemente desparramado en algún cordón
con una quilmes al lado de mi corazón
un par de poemas reprimidos que ya no sirven más
que te aseguro nena, el no te los va a dar
y yo ahora sé que no,
no te importo nada
pero algún día caerás a mi, por eso
no llores por quien no te ama…
ama a quien llora por ti
en el interior de un bar también me podrás encontrar
ahogando penas en un vaso tratando de olvidar,
que le brindaste tus ojos y el te hizo una herida profunda, nena
que mi guitarra no suena esta triste
y siempre adentro de su funda,
y no la toco porque…
no te importo nada
pero algún día caerás a mi, por eso
no llores por quien no te ama…
ama a quien llora por ti
ama… ama a quien llora por ti
ama… ama a quien llora por ti
y termina en E
“Y me resulta imposible sacarla de mi cabeza,
un camino de ida y vuelta que termina en la cerveza,
EN LA CERVAZA!!!”




[Ama a quien llora por tí chords][Ama a quien llora por tí cifra]
© LaCuerda.net · aviso legal · privacidad · es · en · pt · contacto