Acordes de Guitarra » P »Pastilla » Rasga mi piel (Tab)

Rasga mi piel
Pastilla

Letras, Acordes y Tabs para Guitarra, Bajo y Ukulele

  • E--5h7--7--7--5-----------------------------------------
    B-------------------7h8--8--8--7-----0------------------
    G----------------6----------------7---------------------
    D-------------------------------------------------------
    A-------------------------------------------------------
    E-------------------------------------------------------
    
    E--5s7--7--7--9-----------------------------------------
    B----------------10--7h8--8--8--7-----0-----------------
    G----------------------------------7--------------------
    D-------------------------------------------------------
    A-------------------------------------------------------
    E-------------------------------------------------------
    
     Bm        A    G             Em
    Esta realidad ya no es de los dos
    Bm        A
    ahora somos tres
    G             Em
    dime que sientes hoy
    
  • E--5h7--7--7--5-----------------------------------------
    B-------------------7h8--8--8--7-----0------------------
    G----------------6----------------7---------------------
    D-------------------------------------------------------
    A-------------------------------------------------------
    E-------------------------------------------------------
    
    E--5s7--7--7--9-----------------------------------------
    B----------------10--7h8--8--8--7-----0-----------------
    G----------------------------------7--------------------
    D-------------------------------------------------------
    A-------------------------------------------------------
    E-------------------------------------------------------
    
     Em        D   Em             Bm
    Esta realidad ya no es de los dos
    Em          D
    ahora somos tres
    Em            Bm
    dime que sientes hoy
    
  • +
    ¡Colabora con nosotros!
    Envíanos tu versión de esta canción

Letra de Rasga mi piel
Esta realidad ya no es de los dos
ahora somos tres
dime que sientes hoy
Rasga mi piel y prueba mi sangre
Sientete viva ya no te tardes
Piensa en mi soy tu destino
Recoge mis miedos
y haz un camino
Te puedo cubrir con llagas la memoria
O puedo hacer que llore tu historia
Mi mundo estallo de pronto al conocerte
y lo quieras o no tu eres mi buena suerte
[(Requinto)--> Con el que se comienza]
Si eres feliz
Yo me siento bien
Yo te extraÑare
Siempre te extraÑare
Rasga mi piel y prueba mi sangre
Sientete viva, ya no te tardes
Piensa en mi, soy tu destino
Recoge mis miedos
y haz un camino
Te puedo cubrir con llagas la memoria
O puedo hacer, que llore tu historia
Mi mundo estallo de pronto al conocerte
y lo que quieras o no tu eres mi buena suerte
Corta mi piel y haz tu camino
Corta mi piel y haz tu camino
Corta mi piel y haz tu camino
Corta mi piel y haz tu camino
Termina con el requinto inicial, la mayoria de la cancion lo
lleva. Escuchad y os daras cuenta de lo que digo. Espero que les
guste :)




[Rasga mi piel chords][Rasga mi piel cifra]
© LaCuerda.net · aviso legal · privacidad · es · en · pt · contacto