Acordes de Guitarra » P »Pastilla » Colores (Tab)

Colores
Pastilla

  • Tablatura
    e|------------------------|-----------------------|
    B|------------------------|-----------------------|
    G|------------------------|-----------------------|
    D|------------------------|-----------------------|
    A|--7-7--9--11--9--7---7--|--7-7--9--11--9--7-----|
    E|------------------------|--------------------9--|
                                                          x2
    e|------------------------|-----------------------|
    B|------------------------|-----------------------|
    G|------------------------|-----------------------|
    D|------------------------|-----------------------|
    A|--7-7--9--11--9--7------|--7-7--9--11--9--7---7-|
    E|---------------------9--|-----------------------|
    
    
    E
     Ya es muy tarde, no es tan tarde.
    A
     Espera un poco, espera un ratito.
    E
    
  • Tab p/Bajo
    Intro:
    e|------------------------|-----------------------|
    B|------------------------|-----------------------|
    G|------------------------|-----------------------| guitarra
    D|------------------------|-----------------------|
    A|--7-7--9--11--9--7---7--|--7-7--9--11—-9--7-----|
    E|------------------------|--------------------9--|
    
    intro
    
    G|--------------------------------------------------------------|
    D|--------------------------------------------------------------|  bajo
    A|--------------------------------------—-----------------------|    x2
    E|-0-0-0-0-0-0-0-0-0-0-0-0-0-0-0-0-0-0-0-0-0-0--5-5-5-5-5-5-5-5-|
    
    e|------------------------|-----------------------|
    B|------------------------|-----------------------|
    G|------------------------|-----------------------|  guitarra
    D|------------------------|-----------------------|
    A|--7-7--9--11--9--7------|--7-7--9--11--9—-7---7-|
    E|---------------------9--|-----------------------|
    
    G|-----------------------------------------------------------
  • +
    ¡Colabora con nosotros!
    Envíanos tu versión de esta canción

Letra de Colores
x2
Ya es muy tarde, no es tan tarde.
Espera un poco, espera un ratito.
Dame tu mano, nada importa.
Estamos solos, y estas mojada.
Cuando todo es de color
el azul es el mejor
cuando quieras descubrir y tu piel quieras abrir
Cuando todo te va mal
piensa solo en mi voz.
Toma una navaja y cortate las venas.
Por la mañana, abres los ojos.
Y te levantas, tomas un baño.
Llama a un taxi, hacia el estudio
todos te esperan, y estan enojados.
Cuando todo es de color
el azul es el mejor.
Cuando quieras descubrir y tu piel quieras abrir.
Cuando todo te va mal
piensa solo en mi voz.
Toma una navaja y cortate las venas.
Cuando todo es de color
el azul es el mejor.
Cuando quieras descubrir y tu piel quieras abrir.
Cuando todo te va mal
piensa solo en mi voz.
Toma una navaja y cortate las venas.
Cuando todo es de color
el azul es el mejor.
Cuando quieras descubrir y tu piel quieras abrir.
Cuando todo te va mal
piensa solo en mi voz.
Toma una navaja y cortate las venas.
Y cortate las venas...
Y cortate las venas...
Y cortate las venas...



© LaCuerda.net · aviso legal · privacidad · contacto
DINAMICO