Acordes de Guitarra » P »Pastilla » Por Qué Quieres Poder (Tab)

Por Qué Quieres Poder
Pastilla

Letras, Acordes y Tabs para Guitarra, Bajo y Ukulele

  •      C   G   F   G
    e|--------------------|
    b|--------------------|
    g|--------------------|
    d|---5----------------|
    a|---3---5---3---5----|
    e|-------3---1---3----|
       -esto va con mutings-
    
    
    e|----------------------------------------------|
    b|--5--6-5-6-5----3-5--5--10-8-10-8--6-5-3------|
    g|--------------5--------------------------(5)--|  (x2)
    d|----------------------------------------------|
    a|----------------------------------------------|
    e|----------------------------------------------|
       -este es el teclado del inicio-
       -el paréntesis se toca en la segunda vuelta-
    
    
    
  • +
    ¡Colabora con nosotros!
    Envíanos tu versión de esta canción

Letra de Por Qué Quieres Poder
-esto va con mutings-
-este es el teclado del inicio-
-el paréntesis se toca en la segunda vuelta-
-fig.2-
(fig.1)
busque tu amor y al resbalarme
me sorprendí ahí te encontré
(fig.2)
(fig.1)
quise saber por que volviste
y tal vez fui yo quien te hable
(fig.2)
dime quien eres tú
¿por qué me quieres llevar a mi?
dime quien eres tú
¿por qué tienes tanto poder?
b|-15-15b-15r-13~-|
-las “b” significan jalar la cuerda para arriba-
-las “r” significan devolver la cuerda a su posición-
-lo del paréntesis es una figura muy rápida-
-fig.3-
(fig.3)
dime quien eres tú
¿por qué tienes tanto poder?
(fig.2) (x2)
(fig.2)
no, no, me lleves a mi
no, no, me lleves a mi
(fig.2)
no, no, me lleves a mi
no, no, me lleves a mi
-termina en C y con ruido de teclados y de guitarra-




[Por Qué Quieres Poder chords][Por Qué Quieres Poder cifra]
© LaCuerda.net · aviso legal · privacidad · es · en · pt · contacto
DINAMICO