Acordes de Guitarra » P »Pastilla » Energía (Tab)

Energía
Pastilla

Letras, Acordes y Tabs para Guitarra, Bajo y Ukulele

  • mi m    022000
    la m7   x02010
    re      x54030
    sol     320003
    
    
    **ARREGLO 1**      »» - se desliza hacia el otro traste
    
    1a--5--3------------------------------------------5--3-----------
    2a--------5--3--5---------------------------------------5--3--5--
    3a---------------------------------------------------------------
    4a---------------------------------------------------------------
    5a-----------------10-10-10-10--7--7--9--9--9--9-----------------
    6a------------------0--0--0--0--0--0--0--0--0--0-----------------
    
    1a---------------------------------------------------------------
    2a---------------------------------------------------------------
    3a---------------------------------------------------------------
    4a--------------------------7--9--7--9--7--9--7--5---------------
    5a-10-10-10-10--7--7--9--9---------------------------------------
    
  • +
    ¡Colabora con nosotros!
    Envíanos tu versión de esta canción

Letra de Energía
**ARREGLO 1** »» - se desliza hacia el otro traste
**ARREGLO 2**
mi m mi m (**ARREGLO 1**)
Me arrancaste mi energia
con tus puños de claveles
me enterraste con tus uñas
en la tierra inferior
Y aqui estoy
me escape
en forma de una luz
violeta
Viajo a toda energia
entre toda esta materia
te quiero decir
te quiero enseñar
Y aqui estoy
me escape
envuelto en una luz
violeta




[Energía chords][Energía cifra]
© LaCuerda.net · aviso legal · privacidad · es · en · pt · contacto
DINAMICO