Acordes de Guitarra » P »Paquita la del Barrio » Tres veces te engañé (Tab)

Tres veces te engañé
Paquita la del Barrio

Letras, Acordes y Tabs para Guitarra, Bajo y Ukulele

  •                   E
    1--0--0-----0-----0
    2--2--2--3--2--3--2
    3--------4-----4---
    
    
    1--0--0-----0-----0
    2--2--2--3--2--3--2
    3--------4-----4---
    
                      A
    1-----------0------
    2--0--0--0--2--3--2
    3--1--1--1-----4--2
    
                      E
    1--0--0-----0-----0
    2--2--2--3--2--3--2
    3--------4-----4---
    
    
  • +
    ¡Colabora con nosotros!
    Envíanos tu versión de esta canción

Letra de Tres veces te engañé
2--2--2--3--2--3--2
2--2--2--3--2--3--2
2--0--0--0--2--3--2
2--2--2--3--2--3--2
2--2--2--3--2--3--2
2--0--0--2--3--3--2--0
3--1--1--2--4--4--2--1--2
Tu que me dejabas
yo que te esparaba
yo que tontamente
siempre te era fiel
desgraciadamente
hoy fue diferente
me tope con alguien
creo que sin querer
tres veces te engañe
tres veces te engañe
tres veces te engañe
la primera por coraje
la segunda por capricho
la tercera por placer
tres veces te engañe
tres veces te engañe
tres veces te engañe
y despues de esas tres veces
y despues de esas tres veces
no quiero volverte a ver
dices que me quieres
y que me perdonas
pero lo que tu hagas
no me imoporta ya
hoy me siento viva
me siento importante
y de lo que pase
yo me encargare




[Tres veces te engañé chords][Tres veces te engañé cifra]
© LaCuerda.net · aviso legal · privacidad · es · en · pt · contacto
DINAMICO