Tablatura para Bajo de Pappo: Slide blues
Conexión · Inscripción
Letras y Acordes
Pantalla Completa
Imprimir
Versión Texto
Añadir Favorito
Otras Versiones

Mostrar Diagramas
Desfile Automático
Formato del Texto


Slide blues(BAJ)

Pappo

calidad:
papp0323
AUTOR: Pappo's Blues
ALBUM: Pappo's Blues, Vol. 2 (1975)
Enviado por victor
Esta transcipcion es de su version original de “Volumen 6” con Eduardo
Daniel "Fanta" Beaudoux en el bajo.
Los guiones marcan el comienzo de cada compas.
Básicamente las vueltas son en escala de blues con estas notas:
A# D# A# A# D# D# A# A# F D# A# A# y vuelve otra vez desde el principio.
Detalle compas por compas por si hay dudas pero no es un tema difícil, repite
yeites, se van a dar claramente cuenta.


0:03
   -                       -                      -
G|--------------------10--------5--5-------------------------------------
D|-8----5----8----8/11---8-----------8-8------8--------5--5--------------
A|-------------------------6--6----------6-6h9--6-----------8-------8----
E|----6----6----6---------------------------------6--6---------6-6h9--6h9

   -                     -                       -
G|----------------------------5--5--------------------5--5------------
D|------5--5-----------------------8-------8---------------8-------8--
A|-----------8-------8---6--6---------6-6h9--6h9-6--6---------6-6h9--6
E|-6--6---------6-6h9--6----------------------------------------------

0:32
   -                       -                     -
G|----------------------------------------------------7--7---------------
D|------5--5--------------------5--5-----------------------10--------10--
A|-----------8-------8---------------8-------8---8--8----------8-8h11---8
E|-6--6---------6-6h9--6h9-6--6---------6-6h9--6-------------------------

   -                   -                   -
G|-------------------------------------------------------------
D|-------------------------------------------------------------
A|-6--6-4--4-3--3-2--2-1--1-----------------------5------------
E|--------------------------4--4-3--3-2--2-1--1-3---3-4--4-5--5

1:00
   -                     -                     -
G|----------------------------5--5------------------------------------
D|------5--5-----------------------8-------8--------5--5--------------
A|-----------8-------8---6--6---------6-6h9--6-----------8-------8----
E|-6--6---------6-6h9--6-----------------------6--6---------6-6h9--6h9

   -                     -                       -
G|----------------------------5--5--------------------5--5------------
D|------5--5-----------------------8-------8---------------8-------8--
A|-----------8-------8---6--6---------6-6h9--6h9-6--6---------6-6h9--6
E|-6--6---------6-6h9--6----------------------------------------------

1:28
   -                       -                     -
G|----------------------------------------------------7--7-------------
D|------5--5--------------------5--5-----------------------10-------10-
A|-----------8-------8---------------8-------8---8--8---------8-8h11--8
E|-6--6---------6-6h9--6h9-6--6---------6-6h9--6-----------------------

   -                   -                   -
G|----------------------------------------------------------------
D|----------------------------------------------------------------
A|-6--6-4--4-3--3-2--2-1--1---------------------------------------
E|--------------------------4--4-3--3-2--2-1--1-3-3-3-4-4-4-5-5-5

   -                      -                 -
     “Amanecio esta mañana y desperte cantando blus…
G|---------------------------------------------------------------
D|-------------------6------------------------------------6h8-8--
A|------4--5----6h7h8---8-6~--4---3---2---------4--4------------8
E|-6--6------6--------------------------4-4-6--------6--6--------

   -                     -                       -
                             …amanecio esta mañana y desperte cantando
G|---------------------------------------------------------------
D|-------------6h8-6h8-6-----4--4----6h8-6h8-6h8-----4------4----
A|-----4--4--------------6--------6--------------6-------6----6-4
E|-6--------6----------------------------------------------------

   -                   -                 -
blus…                                    …quizas me hubiera gustado…
G|--------------------------------------------------------8----
D|-----------------6--------------------------6---6--8h10---10
A|-----4--4----6h8---8-----4--4----4-5-6-8--8------------------
E|-6--------6----------6--------6------------------------------

   -               -                   -
…cantar lo que pensabas tu…
G|--------------------------------------------------------
D|-----------------6h8--8-6--6-5--4--4-3--3-5--5-6--6-7--7
A|-6--6-4---3---2-----------------------------------------
E|--------------------------------------------------------

   -                  -                -
…pero yo, yo ya no puedo, esta musica dejar…
G|----------------------------------------------------------
D|------------------6-----4---4--------------------------6--
A|------4---4----8----6----------6-4-6-----4--4-4--4-4h8---8
E|-6--6--------6-----------------------6--------------------

   -                     -                 -
                      …blus solamente con  tres tonos nada
G|--------------------------------------------------------5
D|-----------------6-8-6---------------------------4--5-8--
A|-----4----4--6h8-------6---4---3---2-3-4-6---8-----------
E|-6------6------------------------------------------------

   -                      -                  -
mas…                                            …blus solamente…
G|-------------------------------------------------7--7----------------
D|-8~--6--6-5---4-3h4p3h4--------------------10---------10--10-----10--
A|----------------------------------------6--8---8----------8--8h11---6
E|------------------------6~--4---3---2-1------------------------------

   -                  -                 -
…con tres tonos nada mas…
G|--------------------------------------------------------------------
D|--------------------------------------------------------------------
A|-6---4--4-3--3-2--2-1-----------------------------------------------
E|------------------------4--4-3--3-2---1--1-1-1-3--3-3-4--4-4-4-5-5-5

   -                   -                 -
G|-----------------------------------6---------------------
D|---------------------------------6---8----------------6--
A|------4---------4----6---4--4-6-------------4---4--6h8--8
E|-6--6----6-6--6----6-------------------6--6--------------

4:03
   -                 -                    -
G|---------------------------------------------------------
D|---------------6-8---------------------------------------
A|------4---6--8-----6--6-4--4-3--3-2-3-4-6---4---3---2----
E|-6--6-------------------------------------------------4-1

   -                     -                    -
G|-----------------------------------------------------------------
D|-------------------------------------------------6----6---6---8-6
A|-------4----5----6-9-4------4----5----6-4-6-8--8----8---8---8----
E|-6---6----6----6-------6--6----6----6----------------------------

4:31
   -                   -               -
G|----------------------------------------------------------
D|-----------------------------------------------6-----7---7
A|-6--6-4--4-3--3-2--1-1------------------------------------
E|-------------------------4---3---2---1---3-3-3---4-4---5--

   -                                    -
        …amanecio esta mañana…           …y desperte cantando blus…
G|-----------6-------------------6------------------------------------
D|-8--8-8-8-8--8-8-8-6-8--8-8-8-8-8-6-8-----------4-----4--------4-4-5
A|--------------------------------------6--6-6-6-6--6-6---6-6-6-6-6---
E|--------------------------------------------------------------------

   -                                      -

G|------------6--------6------6-8-6-----------------6-------6-------6-----
D|-8-8-8-8-8-8--8-8-8-8--8-6-8-----8-6-6--8--8-8-8-8--8-8-8---8-6-8---8--6
A|------------------------------------------------------------------------
E|------------------------------------------------------------------------

   -                               -
        …amanecio esta mañana…           …y desperte cantando blus…
G|---------------------------------------------------------------------
D|-----------4-----4---------4-5-8-----------4-------------------4-4-6-
A|-6--6-6-6-6--6-6---6-6-6-6-------6--6-6-6-6--6-6-6-6-4--6-6-6-6-6---6
E|---------------------------------------------------------------------

   -                                      -
G|-----------6--------------------6-----------------6----------------6-----
D|-8--8-8-8-8--8-8-8-8-6-8-8-8-8-8-8-6-6--8--8-8-8-8-8-8-8-8-6h8-8-8---8--6
A|------------------------------------8------------------------------------
E|-------------------------------------------------------------------------

   -                                       -
         …quizas me hubiera gustado…           …cantar lo que pensabas tu”
G|-------------------------------8--------------------------------------------
D|-------6-------------------8h10-10-8-10-8----------4-------------------4---4
A|-8--8-8--8-6-8-6-8--8-8-8-8--------------6--6-6-6-6--6-4-6-4-6--6-6-6-6--6--
E|----------------------------------------------------------------------------


   -                        -
G|-----------6-----8----6----------------------------------------
D|-8--8-8-8-8--8-8--------8--------------------------------------
A|---------------------------------------------------------------
E|--------------------------6---6---6---------------------------


/ : slide up (“arrastrar” hacia adelante)
 : slide down (“arrastrar hacia atrás)
p : pull off (ligado hacia atras)
h : hammer on (ligado)
~ : vibrato


Slide blues (Pappo)

Amaneció esta mañana,
y desperté cantando blues;
amaneció esta mañana,
y desperté cantando blues;
quizás me hubiera gustado,
cantar lo que pensabas tú.

Pero yo, yo ya no puedo,
esta música dejar;
blues solamente,
con tres tonos nada más;
blues solamente,
con tres tonos nada más.

Amaneció esta mañana,
y desperté cantando blues;
amaneció esta mañana,
y desperté cantando blues;
quizás me hubiera gustado,
cantar lo que pensabas tú.


Mientras su musica se siga tocando y escuchando el carpo jamas morira,
vivira eternamente en la memoria de todos.
Este fichero es trabajo propio de su transcriptor y representa su interpretación personal de la canción. El material contenido en esta página es
para exclusivo uso privado, por lo que se prohibe su reproducción o retransmisión, así como su uso para fines comerciales.

© LaCuerda.net · Aviso Legal · Privacidad