Tablatura para Guitarra de Pappo: Slide blues
Conexión · Inscripción
Letras y Acordes
Pantalla Completa
Imprimir
Versión Texto
Añadir Favorito
Otras Versiones

Mostrar Diagramas
Desfile Automático
Manipular Acordes
Formato del Texto


Slide blues(TAB)

Pappo

calidad:
papp0322
AUTOR: Pappo's Blues
ALBUM: Pappo's Blues, Vol. 2 (1975)
Enviado por ariel
hola bueno esto es solo la intro espero que les sirva 
la saque de oido y me parece que deve tener errores
si los encuentran corrijanla y mandenla al atame


e--------------------------------------------------------------------------------------|
B-----------------------------------68-8-8-8h68h68----------------------------------|
G-9b-8b-----------------------------------------------7-6vvv---------------------------|
D---------10v-8p7---------------------------------------------10p8-----10(x)--10-8-10--|
A------------------10(10v)-3v-(x)-----------------------------------------------------|
E--------------------------------------------------------------------------------------|

e--------------------------------------------------------------------12b-11---------|
B----------------------------------------------------------------------------(13b)v-|
G--7b-------------------------------------------------------------------------------|
D-----10----------------10b--11br-9-11b--8-bbbb-------------------------------------|
A--------10-9-8-8b-------------------------------10p8------10bbbb8-----------------|
E------------------11b---------------------------------10---------------------------|

e-------------8-11b------11b----------------12b-12b-12b-12b-12b--(10)v12br----|
B-------------------13b------(11b)vv813-------------------------------------|
G-----8-10b-------------------------------------------------------------------|
D-10--------------------------------------------------------------------------|
A-----------------------------------------------------------------------------|
E-----------------------------------------------------------------------------|

e---------------------------------------------------------------------
B-(13)b-v---------13----11----------------------------8------(8b)vv---
G-----------1012----12-----12h10-10b-10b-10b--8bbbb-----8b-----------
D---------------------------------------------------------------------
A---------------------------------------------------------------------
E---------------------------------------------------------------------

e-------------------------------------------------------------------------------
B-12b-12b-12br------12br---(12)bb-----------------------------------------------
G--------------(12)v----12---------10b-10b-10b-10b-10b-10-10-9b-9b-9b-(9b)vvv---
D-------------------------------------------------------------------------------
A-------------------------------------------------------------------------------
E-------------------------------------------------------------------------------


bueno me falta un pedazo ,despues lo mando
esta transcripcion se la dedico a mi amigo gaston
DE ARIEL O MAS CONOCIDO COMO
Este fichero es trabajo propio de su transcriptor y representa su interpretación personal de la canción. El material contenido en esta página es
para exclusivo uso privado, por lo que se prohibe su reproducción o retransmisión, así como su uso para fines comerciales.

© LaCuerda.net · Aviso Legal · Privacidad