Acordes de Guitarra » P »Pappo » La Adivina (Tab)

La Adivina
Pappo

Letras, Acordes y Tabs para Guitarra, Bajo y Ukulele

  • Atencion: La afinacion del bajo (y de la guitarra tambien por supuesto)
    esta un semitono mas grave.
    Sino en la afinacion mas comun (La440)no “suena” la tab.Pueden:
    1: afinar el bajo 1 semitono mas grave o
    2: pasar el tema poe un editor de audio(Sony vegas)y usando el
    plug in “pitch Shift” lo corren ese semitono.
    
    
    G|---------------------------6-7-9-----------------6h7--7-6-----
    D|------9--7--9---------9--9------------9--7--9-------------9-7-
    A|--------------------------------------------------------------
    E|-7---------------7---------------7----------------------------
    
    G|---------------------------6-7-9--------------------------------
    D|------9--7---9--------9--9------------9--7--9-------------------
    A|----------------------------------------------------------------
    E|-7---------------7---------------7---------------9h10--10-9-7-5-
           “Si acertaste,   es porque estuviste con una adivina”
    G|---------------------------------------------
    D|--------------------------------------
  • +
    ¡Colabora con nosotros!
    Envíanos tu versión de esta canción






[La Adivina chords][La Adivina cifra]
© LaCuerda.net · aviso legal · privacidad · es · en · pt · contacto
DINAMICO