Acordes de Guitarra » P »Pappo » A donde esta la libertad (Tab)

A donde esta la libertad
Pappo

Letras, Acordes y Tabs para Guitarra, Bajo y Ukulele

  • e---------]---------------------
    b---------]-5e7-5-3---3---------
    g---------]---------4---4-2p0---
    d-------2-]-------------------2-
    a--2----0-]---------------------
    E--0--3---]---------------------
    
    e-------------------------------
    b-----------5e7-5-3-------------
    g-------------------4-2-4-----2-
    d-------2-----------------0p2---
    a--2----0-----------------------
    E--0--3-------------------------
    
    e-----------------0-----5e7-3---
    b-----------------3e5---------5-
    g-------------------------------
    d-------2-----------------------
    a--2----0-----------------------
    E--0--3-------------------------
    
  • --A Donde Esta La Libertad Por Hugo Della Torre--
    
    RIFF 1:
    e*-------*
    b*-------*
    g*-------*
    d*-------*
    a*-0-5-7-*
    e*-0-3-5-*
    
    RIFF 2
    e--------------*
    b*-------------*
    g*-------------*
    d*-------------*
    a*-5-3-5-3-5-3-*
    e*-------------*
    
    RIFF 3
    e*---------*
    
  • 1|---------|------------------------|------------------------|
    2|---------|------------------------|------------------------|
    3|---------|-7b--5-7---5-7-5br------|-7b--5br--------------2-|
    4|-------2-|---------7--------7--7~-|--------7-5-------------|
    5|-2-----0-|------------------------|-------------7-5---3h4--|
    6|-0-3-----|------------------------|------------------------|
    
                               Cierre
    1|------------------------|-----
    2|------------------------|-----
    3|-5br~~----7br-p5--------|-5~--
    4|-5br~~-7---------7--7~--|-5~--
    5|------------------------|-----
    6|------------------------|-----
    
    Sobre Riff
    
    A dónde está la libertad
    No dejo nunca de pensar
    Quizás la tengan en algún lugar
    
  • Esta transcripción es de la version de “Pappo y amigos”, en la original de
    “Volumen 1” el bajo no se escuchaba tan nitido como para sacarlo bien, aunque
    es mejor y suena mas poderosa y termina con una zapada blusera buenisima.
    Los guiones en algunas partes marcan el comienzo de cada compas.
    
    0:04
    
    G|---------------------------------------------
    D|---------------------------------------------
    A|---------------------------------------------
    E|-0-3--5--------0-3--5--------0-3--5--5-------
    
             “A donde esta la libertad…                    …no creo que…
    G|-----------------------------------------------------------
    D|-----------------------------------------------------------
    A|-----------------------------------------------------------
    E|-0-3--5--------0-3--5--------0-3--5--------0-3--5--5-------
    
    …nunca…            …si que nunca, la hemos pasado tan…
    G|---------------------------------------------------
    D|---------------------------------------------------
    A|-5-3-5-3-5-3
  • +
    ¡Colabora con nosotros!
    Envíanos tu versión de esta canción

Letra de A donde esta la libertad
riff 1
Adonde esta la libertad
riff 1
no dejo nunca de pensar
riff 1
quizas la tengan en algun lugar
que tendremos que alcanzar
no creo que nunca
si que nunca
no creo que nunca
la hemos pasado tan mal
no es posible
es imposible
aguantar
riff 1
el otro dia me quisieron matar
riff 1
con ametralladoras papapapa
riff 1
yo solo quiero escapar
de toda mi locura intelectual
no creo que nunca
si que nunca
no creo que nunca
la hemos pasado tan mal
no es posible
es imposible
aguantar.
riff 2
repite 4 veses
Espero que les sirba, si hay dudas manden un e-mail




[A donde esta la libertad chords][A donde esta la libertad cifra]
© LaCuerda.net · aviso legal · privacidad · es · en · pt · contacto