Acordes de Guitarra » P »Panteón Rococó » Nada Paso (Tab)

Nada Paso
Panteón Rococó

Letras, Acordes y Tabs para Guitarra, Bajo y Ukulele

  • Am F E x4
    
                   Am   F E
    Y ahora el te pide
                            Am   F E
    que junto a él sigas luchando
                          Am           F   E
    por acabar con la injusticia en este país
                             Am         F    E
    por que ha tus raices ya nunca las dejes ir
                   Am         F    E
    ayudes a tu hermano a no sucumbir
                         Am            F         E  
    y no dejes que esta tierra se nos vaya a hundir
    
    Am F E x4
    
                   Am  F  E   
    Y ahora el te pide
                              Am            F         E 
    
  • Dm C
    
    Dm
    Con el ego muy arriba
    C
    y la conciencia por los suelos
    Dm
    a 30 años la historiA
                  C
    parece hacer memoria
    Dm
    Mientras el pueblo observa indiferente
    C
    Q en todos lados Matan a su gente
    Dm
    y tu sentado aquí oyendo esta canción
    C
    dime ¿q haces para salvar a la nación?
    
    
    
  • INTRO  CON EL EGO ............
    G---------------------------------
    D---------7--------2-5-3-2--------X3
    A-----5-8---85-----3--------------
    E---------------------------------
    
    G----------------------------------
    D----------------------------------
    A-----0-5--0-4-3----0-3-0-4-5------
    E----------------------------------
    POBRE DE EL POBRE DE ELLA 
    G-----------------------------------
    D-----------------------------------
    A-------0X7-------------------------
    E--1X7------------------------------
    
    G----------------------------------
    D----------------------------------
    A-----0-5--0-4-3----0--3-0-4-5-----
    E----------------------------------
    CUMBIA 
    AZUCAR
    
    G-----------------------------------  dudas
    D-----------------------------------  shavooddiajan@hotmail.com
    A--0X3------------------------------
    E--1X3-----0X8---------------------
  • +
    ¡Colabora con nosotros!
    Envíanos tu versión de esta canción

Letra de Nada Paso
Con el ego muy arriba
y la conciencia por los suelos
a 30 años la historiA
parece hacer memoria
Mientras el pueblo observa indiferente
Q en todos lados Matan a su gente
y tu sentado aquí oyendo esta canción
dime ¿q haces para salvar a la nación?
le destrozo el corazón
tantas historias que se han contado
de todas no se entero
al otro día no se hablo nada
todo el mundo calló
pistola en mano y una metralla
y aquí nada paso
Pobre de él pobre de ella
la bala los separó
y ahora el vive en una estrella
donde no hay represión
Pobre de él pobre de ella
el cielo se sacudió
ahora el vive feliz en una estrella
donde no hay represión
mamita dame
dame sabor
dame sabor del rococo
para salvar a la nación
de el malvado babylon
Y hoy su madre sigue acudiendo
al lugar donde él murió
es dos de octubre y esta lloviendo
y a ella no le importó
cuando en el alma se trae la lucha,
como a él le sucedió
no importa que cortes cartucho
si aquí nada paso
Pobre de él pobre de ella
la bala los separó
y ahora el vive en una estrella
donde no hay represión
Pobre de él pobre de ella
el cielo se sacudió
ahora el vive feliz en una estrella
donde no hay represión
Y ahora el te pide
que junto a él sigas luchando
por acabar con la injusticia en este país
por que a tus raíces ya nunca las dejes ir
ayudes a tu hermano a no sucumbir
y no dejes que esta tierra se nos vaya a hundir
Y ahora el te ruega
que por la causa en la que el murió por amor por dolor
ayudes a tu hermano a no morir
enseñes al compatriota a compartir
acudas ya con tu pueblo a combatir
y enseñes a los niños a sonreír




[Nada Paso chords][Nada Paso cifra]
© LaCuerda.net · aviso legal · privacidad · es · en · pt · contacto