Acordes de Guitarra » P »Panteón Rococó » Es tan poco el tiempo (Tab)

Es tan poco el tiempo
Panteón Rococó

Letras, Acordes y Tabs para Guitarra, Bajo y Ukulele

  • La rola tiene muchos cambios, asi qe si no la han oido mucho
    o con detenimiento, lo mas probable es que les cueste trabajo
    
    Riff 1
    g--------------------------------------------------------
    d---4-----------4------------4-----------4---------------
    a-2-------0-0-2--------0-0-2-------0-0-2-------0-0-2-0---
    e-----2-2---------2-2----------2-2---------2-2---------2-
    
    *cuando termina de cantar en ingles y comienzan los 
    alientos comienza el segundo riff*
    
    Riff 2
    g--------------------------------------------------------
    d--------------------------------------------------------
    a-2-2---0-4-0-2-2---0-4-0-2-2---0-4-0-2-2---0-4-0-2-0----
    e-----2-----------2-----------2-----------2-----------2--
    
    *se repite el riff 1 y el 3 empieza con el coro*
    
    Riff 3
    g--------------------------------------------------------
    d---4-0-----------0-----4-0-----------0-----4-0----------
    a-2-----4-2---0-4---4-2-----4-2---0-4---4-2-----4-2---0-4
    e-----------2-------------------2-------------------
  • +
    ¡Colabora con nosotros!
    Envíanos tu versión de esta canción






[Es tan poco el tiempo chords][Es tan poco el tiempo cifra]
© LaCuerda.net · aviso legal · privacidad · es · en · pt · contacto
DINAMICO