Acordes de Guitarra » P »Panda » Usted (Tab)

Usted
Panda

Letras, Acordes y Tabs para Guitarra, Bajo y Ukulele

  • D                   A
    ¿Recuerdas esas promesas
             Bm        F#m
    de fin de año y con cerveza? oh
    G               D                A
    Ya las olvidé el brindis se la llevo
    
    
    D                    A
    Encerrados ahí en tu cuarto
               Bm        F#m
    Dieron las 12 y nos besamos
    G                D                   A
    no recuerdo más después del conteo final
    
    
    Bm       A         G
    Hoy todo se derrumbó
    D         A
    propósito nuevo
    
  •     F               C              Dm           Am
    ¿Recuerdas esas promesas de fin de año y con cerveza?, oh,
        A#              F                C
    ya las olvidé, el brindis se las llevó.
          F               C                  Dm         Am
    Encerrados ahí en tu cuarto, dieron las doce, nos besamos,
          A#              F                C
    no recuerdo más, después del conteo final.
    
    Dm       Am        A#     F        C
    Hoy todo se derrumbó, propósito lo hago.
    Dm       Am            A#    F-F-F-F
    Para bailar se ocupan dos...
    
              A#              F                Am              Dm
    No hables ya, y guarda todas esas lindas palabras para alguien más,
        Am       A#                F                  C
    me puedes gritar, me puedes odiar, luego agradecerás.
                   A#           F                  Am                   Dm
    Que no estaré ahí, no llegaré, pues yo no te merezco, no soy quien tú crees.
    
  • E|------------------9---------------------------------6------------------
    A|-9------------------11--------11----6----------------------------------
    D|----11-------11-----------11-----------8-----------------8-------------
    G|----------11-----------10-------------------------8-----------------6--
    B|-------11---------------------------------9---7-----------------6------
    e|--------------------------------------------------------------6--------
                                                                              X2
    E-7--------------------------------9------------------------------------
    A---------------9---------------------11--------11---11-13----------11--
    D----9-------------11---------11-------------11------11---------11------
    G------------8-------------11--------------10--------11----11-10--------
    B----------7-----------11-----------------------------------------------
    e--------7--------------------------------------------------------------
    
    
    E---------------9-----------------7----------------------9------
    A--6---------------11--------11-------------------9-------------
    D----8--------------------11---------9--------------------------
    G------------8----------10---------------------8------------10--
    B-------9--7-------------------------------7----------11--------
    
  • ----------
    
             F                 C              Dm               A
    e|------------------|--------------|--------5------|--------5------|
    B|--------10--------|-------5------|----------6----|----------5----|
    G|-----------10-----|---------5----|------------7--|------------6--|
    D|----10--------10--|----5------5--|----7----------|----7----------|
    A|--8---------------|--3-----------|--5------------|---------------|
    E|------------------|--------------|---------------|--5------------|
    ¿Recuerdas esas pro - mesas de fin de año y con cer - veza? Oh.
    
    
             A#                F                        C
    e|--------6------|-------------------|------------------------------|
    B|----------6----|---------10--------|-------5-----5/6--6--6p5------|
    G|------------7--|------------10-----|---------5---5----5------7p5--|
    D|----8----------|----10---------10--|----5-------------------------|
    A|---------------|--8----------------|--3---------------------------|
    E|--6------------|-------------------|------------------------------|
       Ya las olvidé,  el brindis se las llevó.
    
  • Mi primer Tab de una de mis bandas Favoritas!
    
    Te amo Gloria es inevitable no pensar en ti aun que ya no estés aquí :(!
    
    
    VERSO
    
    Encerrados allá en tu cuarto,
    Dieron las doce nos besamos.
    No recuerdo más,
    Después del conteo final.
    
    G|--------------------|
    D|--------------------|
    A|-----3--5----------3|
    E|—-1-------5--6--1---|
    
    Hoy todo se derrumbó.
    Propósito nuevo,
    
    G|---------------------------------------------|
    D|-----7-----------5---7-----------------------|
    A|--5-----5----3---------------8-----------3---|
    E|—------------------------6-------6----1------|
    
    Para bailar se ocupan dos.
    
    G|---------------------------------------------|
    D|-----7-----------5---7-----------------------|
    A|--5-----5----3---------------8--------------3|
    E|—------------------------6-------6----111----|
    
    CORO
    
    No hables ya,
    Y guarda todas esas lindas palabras
    Para alguien más
    
    G|--------------------------------------------------------|
    D|--------------------------------------------------------|
    A|--
  • +
    ¡Colabora con nosotros!
    Envíanos tu versión de esta canción

Letra de Usted
¿Recuerdas esas promesas
de fin de año y con cerveza? oh
Ya las olvidé el brindis se la llevo
Encerrados ahí en tu cuarto
Dieron las 12 y nos besamos
no recuerdo más después del conteo final
Hoy todo se derrumbó
propósito nuevo
para bailar se ocupan dos
No hables ya!!!
y guarda todas esas lindas palabras para alguien más
me puedes gritar
me puedes odiar
luego agradecerás
quiero estar ahí
no llegaré pues yo no te merezco
no soy quien tu crees
No te hago bien
yo debería de hablarte de usted
si acaso has de merecer
La ironía de ir con celos
caminando por vasconcelos who
me puso a pensar
si nuestro amor fue real
te juro yo lo dí todo
la ansiedad encontró su acomodo
ya no se puede fumar casi en ningún lugar
No hables ya!!!
y guarda todas esas lindas palabras para alguien más
me puedes gritar
me puedes odiar
luego agradecerás
quiero estar ahí
no llegaré pues yo no te merezco
no soy quien tu crees
No te hago bien
yo debería de hablarte de usted
si acaso has de merecer
extrañare hasta tu voz
me duele aquí dentro
es necesario el adiós
No hables ya!!!
y guarda todas esas lindas palabras para alguien más
me puedes gritar
me puedes odiar
luego agradecerás
quiero estar ahí
no llegaré pues yo no te merezco
no soy quien tu crees
No te hago bien
yo debería de hablarte de usted
si acaso has de merecer




[Usted chords][Usted cifra]
© LaCuerda.net · aviso legal · privacidad · es · en · pt · contacto