Tablatura para Guitarra de Panda: Romance en Re sostenido
Conexión · Inscripción
Letras y Acordes
Pantalla Completa
Imprimir
Versión Texto
Añadir Favorito
Otras Versiones

Mostrar Diagramas
Desfile Automático
Manipular Acordes
Formato del Texto


Romance en Re sostenido(TAB)

Panda

calidad:
pnda1071
AUTOR: Pepe
ALBUM: Bonanza (2012)
Enviado por Jonathan
e--------------------------------------------
b---8--------------4---3--------------9------
g--------------------------------------------
D--------------------------------------------
A---6--------------3------------------8------
E--------------------------------------------
   Me dicen por hay, la música es alimento,

e---------------------------------------------
b-----------------------------4--------3------
g---------------------------------------------
D---------------------------------------------
A-----------------------------1---------------
E---------------------------------------------
   del amor siendo este el simiento de la vida

e---------------------------------------------
b---8---------------4--3----------------9-----
g---------------------------------------------
D---------------------------------------------
A---6---------------3-------------------8-----
E---------------------------------------------
   Entonces seria yo, aquel pasado de peso
e---------------------------------------------
b-----------------------4----------3----------
g---------------------------------------------
D---------------------------------------------
A-----------------------1---------------------
E---------------------------------------------
   romantico hasta el hueso, que ironía

e---------------------------------------------------------------
b---------8-----------------------4-------------------------9---
g-------8---8-------------------5---5--------------------10---10
D-----8-----------------------5-----------------------10--------
A---6-----------------------3-----------------------8-----------
E---------------------------------------------------------------
         Mas todo es al revés,    le escribi mas de 3,
e---------------------------------------------
b------------------------------3--------------
g----------------------------3---3------------
D--------------------------3------------------
A------------------------1--------------------
E---------------------------------------------
        cientas diez canciones

e----------------------------------------------------------------
b---------8-----------------------4-------------------------9----
g-------8---8-------------------5---5--------------------10---10-
D-----8-----------------------5-----------------------10---------
A---6-----------------------3-----------------------8------------
E----------------------------------------------------------------
           Y nada cambia aquí,      sigo de infeliz,
e---------------------------------------------
b------------------------------3--------------
g----------------------------3---3------------
D--------------------------3------------------
A------------------------1--------------------
E---------------------------------------------
           buscando soluciones.

Coro

Fm A# D# Me encantaría caer, no solo tropezar
Cm Fm por alguien que realmente aprecie mi cantar.
A# D# No quiero ser aquel que ya desperdició
Cm Fm la vida entera haciendo tonto al corazón.
A# Ni modo, ese soy yo. e---------------------------------------------------- b------8---------------4--------------------------9-- g-----8-8-------------5-5-----------------------10-10 D----8---------------5------------------------10----- A---6---------------3------------------------8------- E---------------------------------------------------- Me dicen por hay, que lo único necesario, e--------------------------------------------- b--------------------------3------------------ g-------------------------3-3----------------- D------------------------3-------------------- A-----------------------1--------------------- E--------------------------------------------- realmente extraordinario, es el amor e-------------------------------------------------------- b----8---------------4--------------------------------9-- g---8-8-------------5-5-----------------------------10-10 D--8---------------5------------------------------10----- A-6---------------3------------------------------8------- E-------------------------------------------------------- Entonces cambiare, dejare el cantar y a mi guitarra, e--------------------------------------------- b--------------------------------------------- g------------------------------3-------------- D-----------------------------3-3------------- A----------------------------3---------------- E---------------------------1----------------- pues no me han servido de nada, ahora leo
D# Cm Pues todo sigue igual,
Fm la lectura más capaz
A# no me servirá.
D# Cm Y es que la verdad
Fm no he podido conjugar
A# el verbo amar.
Fm A# D# Me encantaría caer, no solo tropezar
Cm Fm por alguien que realmente aprecie mi cantar.
A# D# Te tengo tanto amor, mas no donde depositar,
Cm Fm pues todo el recipiente ocupado está.
A# Así como no fallar.
Fm A# D# Me encantaría caer, no solo tropezar
Cm Fm por alguien que realmente aprecie mi cantar.
A# D# Y esta enfermedad, pequeña dosis soledad.
Cm Fm Acaso soy el único que vive mal.
A# Así como no fallar.
D# Cm No puedo abandonar
Fm mi único manjar,
A# mi único alimento.
D# Cm Mas no quiere decir
Fm que esta cicatriz
A# sea solo un recuerdo.
Este fichero es trabajo propio de su transcriptor y representa su interpretación personal de la canción. El material contenido en esta página es
para exclusivo uso privado, por lo que se prohibe su reproducción o retransmisión, así como su uso para fines comerciales.

© LaCuerda.net · Aviso Legal · Privacidad