Acordes de Guitarra » P »Panda » Libre Pastoreo (Tab)

Libre Pastoreo
Panda

Letras, Notas, Punteos, Tablaturas y Acordes de Guitarra (Tabs & Chords)

  • Letra y Acordes
    Am, F, G, Am
    F            C
    Recuerda buscarme
              G           Am
    En la sección de ficción.
      F               C
    Apunta mi nombre bien,
                   G
    Y el del escritor.
    
    Am
    F                    C
    Las letras dentro de mí
                 G
    Son de mi autor,
                 Am
    Y su imaginación.
    F                    C
    Nada es de mi propiedad.
    
    
  • Tablatura
    d#||--------------------|--------------------||
    A#||-----------3--------|-----------3--------||
    F#||-----2--------2-----|-----4--------4-----||
    C#||--4-----4--------4--|--5-----5--------5--||
    G#||--------------------|--------------------||
    D#||--------------------|--------------------||
    
    d#||--------------------|--------------------||
    A#||-----------7--5-----|-----------7--5-----||
    F#||-----6-----------6--|-----6-----------6--||
    C#||--7-----7-----------|--7-----7-----------||
    G#||--------------------|--------------------||
    D#||--------------------|--------------------||
    
    (Aqui empieza a cantar) | Recuerda buscarme ...
    
    d#||--------------------|--------------------||
    A#||-----------3--------|-----------3--------||
    F#||-----2--------2-----|-----4--------4-----||
    C#||--4-----4--------4--|--5-----5--------5--||
    
  • +
    ¡Colabora con nosotros!
    Envíanos tu versión de esta canción

Letra de Libre Pastoreo
Recuerda buscarme
En la sección de ficción.
Apunta mi nombre bien,
Y el del escritor.
Las letras dentro de mí
Son de mi autor,
Y su imaginación.
Nada es de mi propiedad.
Cuando me miras así,
No entiendo, me cuesta reír.
Cuando resulta que alguien me ama,
Me voooy.
El invierno es largo
Un poco cruel y frío también.
El alcohol no me sirve más,
Pudre nomas.
El olor de tu piel aún me persigue,
Lo quiero eliminar,
Pues al parecer
Prefiero el dolor y libertad.
Cuando me miras así,
No entiendo, me cuesta reír.
Cuando resulta que alguien me ama,
Me voooy.
Cuando me miras así,
Resucita lo que ha muerto de mí.
Cuando resulta que ahora me amas,
No estoooy.
Cuando me miras así,
Resucita lo que ha muerto de mí.
Cuando resulta que ahora me amas,
No estoooy.
El olor de tu piel aún me persigue,
Lo quiero eliminar,
Pues al parecer
Prefiero el dolor y libertad.



© LaCuerda.net · Aviso Legal · Privacidad
DINAMICO