Acordes de Guitarra » P »Panda » Fascinate (Tab)

Fascinate
Panda

Letras, Acordes y Tabs para Guitarra, Bajo y Ukulele

  • Em  G  C  D
    
    
    Em
    Yo te contaré, soy la sencillez, Solo tengo un leve problema
    C                                 D
    Mucho desnivel, ya me acostumbré, No hay rival que prometa
    
    Em
    O que iguale mi superioridad, Hay que cuidar la belleza
    C                             D
    Déjame encontrar una máscara y así hablar con franqueza
    
    
    Em             G                C               D
    Ésta es la verdad, ¿Cuánto faltara para la eternidad?
                  Em                 G
    Quiero que aprendas a poder valorar que te faltó muy
     C              D
    poco para ser estelar
    
  • INTRO:D#m F# B C# (X2)
    
    
    D#m
    Yo te contare, soy la sencillez
    F#
    Solo tengo un leve problema
    B
    Mucho desnivel ya me acostumbre
    C#
    No hay rival que prometa
    D#m
    O que iguale mi superioridad
    F#
    Hay que cuidar la belleza
    B
    Déjame encontrar una mascara
    C#
    Y así hablar con franqueza
    D#m             F#
    
  •     D#         F#     B        C#
    e|-------------------------------------|
    B|-------------------------------------|
    G|-88888888----------44444444-66666666-|
    D|-88888888-44444444-44444444-66666666-|
    A|-66666666-44444444-22222222-44444444-|
    E|----------22222222-------------------|
    
    
    VERSOS
    
    e|-------------13-------------14-------|
    B|----11----11-------11----11------11--| ECO Y DELAY
    G|-13----13-------13----13------13-----|   X 8
    D|-------------------------------------|
    A|-------------------------------------|
    E|-------------------------------------|
    
    
     GUITARRA 1
    
  • Gb|-------------------55555555-77777777-| x2
    Db|-22222222-55555555-55555555-77777777-|
    Ab|-22222222-55555555-33333333-55555555-|
    Eb|-00000000-33333333-------------------|
    
    Guitarra 2
    eb|-12--12--12--12---10--10--10--10---------------------------------
    Bb|---12--12--12--12---12--12--12--12--12h13--12h13--12h13--12h13---
    Gb|-----------------------------------------12-----12-----12-----12-
    Db|-----------------------------------------------------------------
    Ab|-----------------------------------------------------------------
    
    -------------------------------------12--12--12--12---10--10--10--10---
    -14h15--14h15--14h15----------12-15----12--12--12--12---12--12--12--12-
    ------14-----14-----14--12-14------------------------------------------
    -----------------------------------------------------------------------
    -----------------------------------------------------------------------
    
    ---------------------------------------------------------------|
    -12h13--12h13--12h13--12h13---14h15--14h15--14h15--------------|
    
  • TZV...
    
    INTRO:
    G-----------------------------------------|
    D----------------------4-4-4-4--6-6-6-6---| x2
    A-6-6-6-6----4-4-4-4--2-2-2-2--4-4-4-4----|
    E--6-6-6-6--2-2-2-2-----------------------|
    
    VERSO:
    G------------------------------------------------------------|
    D------------------------------4------------6----------------| x2
    A-66-6668666------4----------22-2224222---44-4446444---------|
    E---6-----------22-2224222-----------------------------11/---|
    
    PRECORO:
    G-------------------------------------------|
    D-------------------------------------------| x2
    A-6666-6666-----------2222-2222-4444-4444---|
    E-----------2222-2222-----------------------|
    
    CORO:
    G------------------------------------------|
    D------------------------------------------|
    A------------44444444-11111111-222-444-----|
    E-22h4222h42-------------------------------|
    
    G------------------------------------------|
    D------------------------------------------|
    A------------44444444-11111111-222-44444---|
    E-22h4222h42-----------
  • +
    ¡Colabora con nosotros!
    Envíanos tu versión de esta canción

Letra de Fascinate
Yo te contaré, soy la sencillez, Solo tengo un leve problema
Mucho desnivel, ya me acostumbré, No hay rival que prometa
O que iguale mi superioridad, Hay que cuidar la belleza
Déjame encontrar una máscara y así hablar con franqueza
Ésta es la verdad, ¿Cuánto faltara para la eternidad?
Quiero que aprendas a poder valorar que te faltó muy
poco para ser estelar
Que increíble es que no exista manera
Que en mi vida entera yo me pueda equivocar
Que increíble es tener control de todo
Que no exista modo que algo me pueda salir mal
Se acerca el final, ve a reflexionar, Si acaso alguien te extrañará
Te ofrezco seguridad, pues a mi un poco más del centenar
No te aflijas, yo estaré aquí, Llegué a salvar todo aquello
Que te hace pensar en mi, No confíes, no soy tan gentil
Forza una vez más, trata una vez más, de no enamorarte
Al pensar en mi, al verme sonreír
No quiero que te espantes, no quiero ser hostil
Que increíble es que no exista manera
Que en mi vida entera yo me pueda equivocar
Que increíble es tener control de todo
Que no exista modo que algo me pueda salir mal
Que increíble es que no exista manera
Que en mi vida entera yo me pueda equivocar
Que increíble es tener control de todo
Que no exista modo que algo me pueda salir mal
Forza una vez mas, trata una vez más, de no enamorarte
Al pensar en mi, al verme sonreir
No quiero que te espantes, no quiero ser hostil
Puede ser fatal forzar una vez más
tratar una vez más de no enamorarte
Al pensar en mi, al verme sonreir
No quiero que te espantes, no quiero ser hostil




[Fascinate chords][Fascinate cifra]
© LaCuerda.net · aviso legal · privacidad · es · en · pt · contacto