Tablatura para Guitarra de los Panchos: Capullito De Alheli
Conexión · Inscripción
Letras y Acordes
Pantalla Completa
Imprimir
Versión Texto
Añadir Favorito
Otras Versiones

Mostrar Diagramas
Desfile Automático
Manipular Acordes
Formato del Texto


Capullito De Alheli(TAB)

los Panchos

calidad:
pnch0642
AUTOR: los Panchos  corregir
ALBUM: desconocido
Enviado por Jorge
TRIO LOS PANCHOS CON JOSE LUIS RODRIGUEZ EL PUMA
AUTOR Rafael Hernández Marín

SE TOCA CON CAPO EN EL SEPTIMO TRASTE PARA GUITARRA Y EL SEGUNDO TRASTE
PARA REQUINTO LA PUSE DE ESTA FORMA PARA QUE SI LA QUIEREN TRANSPORTAR
SOLO MUEVAN EL CAPO AL TONO QUE MAS LES ACOMODE

6  ----------------------------------I--
5  ----------------------------------I--
4  ----------------------------------I--
3  --2-------------------------------I--
2  ----0-1-2---0-1-2---0-1-2---0-1-2-I--
1  ----------3-------3-------3-------I--



6  -----------------------------------I--
5  -----------------------------------I--
4  ----------------------7-9----------I--
3  --2---------------7-6-----6-7------I--
2  ----0-2-3-7-----7-------------7----I--
1  ------------7-5-----------------5--I--


6  ----------------------------------I--
5  ----------------------------------I--
4  ----------------------------------I--
3  --2-------------------------------I--
2  ----0-1-2---0-1-2---0-1-2---0-1-2-I--
1  ----------3-------3-------3-------I--



6  ---------------------------------------------------I--
5  ---------------------------------------------------I--
4  ----------------------7-9--------------------------I--
3  --2---------------7-6-----6-7-9-------------8-8----I--
2  ----0-2-3-7-----7---------------7-8-----7-7-7-7-7--I--
1  ------------7-5---------------------5-6-7-7-----5--I--


6  --------------------I--
5  --------------------I--
4  --------------------I--
3  ------------4-4--4--I--
2  --------5-5-5-5--5--I--
1  --2-5-4-3-3---------I--


6  ---------I-----------I----------I------------I----------I----------I--
5  ---------I-----------I----------I------------I----------I----------I--
4  ---------I-----------I----------I------------I----------I----------I--
3  --6------I--6--------I-4--------I---2--------I-0--------I-2-----2--I--
2  ----5-3--I----5---5--I---3---3--I-----2---2--I---0---0--I--3---3---I--
1  ---------I------5----I-----3----I-------2----I-----0----I---2-2----I--

LA LETRA SI LA PUSE CON ACORDES DE GUITARRA EN "E"
PERO SI LA QUIERES TRANSPORTAR AL TONO QUE PUSE
EL REQUINTO CON EL CAPO SE TOCA EN "A" Y YA SOLO
MUEVES EL CAPO AL TONO QUE MEJOR LA CANTES

Requinto
E A E A F# Bm E D C#m Bm A
E Lindo capullo de aleli
A Si tú supieras mi dolor
E Correspondieras a mi amor
A Y calmaras mi sufrir
F# Porque tú sabes que sin tí
Bm La vida es nada para mí
E Tú bien lo sabes
D C#m Bm A Capullito de aleli.
C#7 No hay en el mundo para mí
F#m Otro capullo de alelí
C#7 Que yo le brinde mi pasión
F#m Y que le dé mi corazón
B7 Porque tú eres la mujer
E A quien he dado mi querer
B7 Y te juré lindo alelí
E Fidelidad hasta morir.
E Por eso yo te canto a tí
A Lindo capullito de alelí
E Dame tu aroma seductor
A Y un poquito de tu amor
F# Porque tú sabes que sin tí
Bm La vida es nada para mí
E Tú bien lo sabes
D C#m Bm A Capullito de alelí Requinto
E A E A F# Bm E D C#m Bm A
C#7 No hay en el mundo para mí
F#m Otro capullo de alelí
C#7 Que yo le brinde mi pasión
F#m Y que le dé mi corazón
B7 Porque tú eres la mujer
E A quien he dado mi querer
B7 Y te juré lindo alelí
E Fidelidad hasta morir.
E Por eso yo te canto a tí
A Lindo capullito de alelí
E Dame tu aroma seductor
A Y un poquito de tu amor
F# Porque tú sabes que sin tí
Bm La vida es nada para mí
E Tú bien lo sabes
D C#m Bm A Capullito de alelí Salida 6 ----------------I-- 5 ----------------I-- 4 ----------------I-- 3 --4--------2-2--I-- 2 ----0-1-2--3-3--I-- 1 ----------------I-- ESPERO LES SIRBA ESTA TABLATURA SI LA PRACTICAN DESPACITO Y POCO A POCO LAS VA A SALIR MUY BIEN CUALQUIER DUDA A jahh55@hotmail.com
Este fichero es trabajo propio de su transcriptor y representa su interpretación personal de la canción. El material contenido en esta página es
para exclusivo uso privado, por lo que se prohibe su reproducción o retransmisión, así como su uso para fines comerciales.

© LaCuerda.net · Aviso Legal · Privacidad