Acordes de Guitarra » O »Orquesta Guayacan » Cuando hablan las miradas (Tab)

Cuando hablan las miradas
Orquesta Guayacan

Letras, Acordes y Tabs para Guitarra, Bajo y Ukulele

  • DOm
    Tomare tu mano dulcemente
                                     FAm
    te hablare de amor mientras bailamos
    SOL                   DOm
    cosas del ayer nos decimos nada
                 SOL#            SOL
    porque ahora ha llegado la mirada
    
    DOm
    tómame la mano suavemente
                                     FAm
    dime que me amas mientras bailas
    SOL                   DOm
    besos y caricias solo espero
    SOL#                  SOL
    quiero sentir tu respiración
    
    DOm
    toma mi mano suave y dulcemente
    
  • Intro (2 veces):
    
    G ---------------------|
    D ------5--------5-----|
    A -3-6-----3--6--------|
    E ---------------------|
    
    
    G ------5--------5-----|
    D -3-6-----3--6--------|
    A ---------------------|
    E ---------------------|
    
    
    G ---------------------|
    D ---3---5---3--5---5--|
    A -5---5---5------5----|
    E ---------------------|
    
    
    G -----------|
    D ------5----|
    A -3-6-------|
    E -----------|
    
    Cancion
    
    Primera estrofa:
    
    G -----------|
    D ------5----| (7 veces)
    A -3-6-------|
    E -----------|
    
    
    G ------5---|
    D -3-6------| (2 veces)
    A ----------|
    E ----------|
    
    G ----------------------------------|
    D ---3---5---5---------5------6--5--|
    A -5---5---5-----3--6------3--------|
    E ----------------------------------|
    
    G --------------------------------|
    D ----------3---5---3-5--3--------|
    A ---3-6--5---5---5--------6-5-3--|
    E -4------------------------------|
    
    
    Segunda Estrofa:
    
    G -----------|
    D ------5----| (7 veces)
    A -3-6-------|
    E -----------|
    
    
    G ------5---|
    D -3-6------| (2 veces)
    A ----------|
    E ------
  • +
    ¡Colabora con nosotros!
    Envíanos tu versión de esta canción

Letra de Cuando hablan las miradas
Tomare tu mano dulcemente
te hablare de amor mientras bailamos
cosas del ayer nos decimos nada
porque ahora ha llegado la mirada
tómame la mano suavemente
dime que me amas mientras bailas
besos y caricias solo espero
quiero sentir tu respiración
toma mi mano suave y dulcemente
hazme sentir que nuestro amor existe
en la realidad lo entregas todo
y estas de mí realmente enamorada
hay, hay, hay, amor
porque ahora las palabras no nos dicen nada
hay, hay, hay, amor
porque ahora solo hablan las miradas
hay, hay, hay, amor
porque ahora las palabras nos resbalan
hay, hay, hay, amor
porque ahora nos encienden las miradas
//////
hay, hay, hay, amor
hay, hay, hay, amor ya no me digas nada
hay, hay, hay, amor
ven demuéstrame que estas
de mí realmente enamorada
hay, hay, hay, amor
hazme sentir que nuestro amor existe
hay, hay, hay, amor
que en realidad lo entregas todo
como siempre lo hiciste
////////
hay, hay, hay, amor
tómame de la mano dulcemente
hay, hay, hay, amor
acércate a mi yo quiero hablarte de amor
hay, hay, hay, amor
dime aunque sea mentira que me amas por favor
hay, hay, hay, amor
quiero apoyarte contra a mi pecho
aunque quizá no llegue a tu lecho
hay, hay, hay, amor
amor, amor, amor,
amor, amor, amor,
amor, amor, amor,
amor, amor, amor,
hay, hay, hay, amor
porque ahora es cuando hablan las miradas

Video de Cuando hablan las miradas
[]




[Cuando hablan las miradas chords][Cuando hablan las miradas cifra]
© LaCuerda.net · aviso legal · privacidad · es · en · pt · contacto