Acordes de Guitarra » O »La Oreja de Van Gogh » Dulce Locura (Tab)

Dulce Locura
La Oreja de Van Gogh

Letras, Notas, Punteos, Tablaturas y Acordes de Guitarra (Tabs & Chords)

  • Letra y Acordes
    SIm                    FA#m
    Vendo el inventario de recuerdos de la historia
          SOL                      RE
    más bonita que en la vida escuché
    SIm                    FA#m
    Vendo el guión de la película más triste
             SOL                       LA
    y más la bella que en la vida pude ver
    
    SIm                    FA#m
    Vendo los acordes, la brillante melodía
         SOL                         RE
    y la letra que en la vida compondré
    SIm                             FA#m
    Vendo hasta el cartel donde se anuncia el estreno
          SOL                      LA
    del momento que en la vida viviré
    
    
    MIm                             SIm
    
  • Letra y Acordes
    Intro: Am / Em / F / C / E7 // Am / Em / G
    
    Am                        Em
    Vendo el inventario de recuerdos
                         F                         C  / E7
    de la historia más bonita que en la vida escuché,
    Am                    Em
    vendo el guión de la película más triste,
            F                         G
    la más bella que en la vida pude ver.
    Am                        Em
    Vendo los acordes, la brillante melodía
          F                          C  / E7
    y la letra que en la vida compondré,
    Am                               Em
    vendo hasta el cartel donde se anuncia
          F                                   G
    el estreno del momento que en la vida viviré.
    
       Dm
    
  • Tablatura
    SIm                     FA#m
       Vendo el inventario de recuerdos de la historia más
    e -------------2--------------------------2------------
    B --3----3--------3-----3---2------2---------2-----2---
    G ----4-----4--------4---------2------2---------2------
    D -----------------------------------------------------
    A --2--------------------------------------------------
    E --------------------------2--------------------------
    
       SOL                      RE
       bonita que en la vida escuché
    e -------------3-----------------------2--1--0---------
    B --3-----3-------3-----3----3-----3------------3------
    G -----4-----4-------4----------2----2-----------------
    D ---------------------------0-------------------------
    A -----------------------------------------------------
    E --3--------------------------------------------------
    
    
       SIm                     FA#m
    
  • Tab p/Bajo
    ehm. pongan la cancion para que escuchen donde entra el bajo.
    y coman tierra gallinas!!!
    
    VERSO 1: *empieza en "vendo los acordes, la brillante melodía..."
    G|-16--18--19--14--16------12--14---|
    D|---------------------16-----------|
    A|----------------------------------|
    E|----------------------------------|
    
    G|--------------------------------------------------|
    D|--------------------------------------------------|
    A|--7---7-7--7--------------------------------------|
    E|----7---------7--2/7-7-7-7--9--4/9-9--9--14(16x)--|
    
    CORO 1:
    G|------------------------------------------------------------------------|
    D|------------------------------------------------------------------------|
    A|----------------5(8x)--7(4x)--9(4x)----------------5(8x)----------------|
    E|--7(8x)--3(8x)-----------------------3(8x)--5(8x)---------3(4x)--5(4x)--|
    
    G|----------------------------------------------------------|
    D|----------------------------------------------------------|
    A|----------------5(8x)--7(4x)--9(4x
  • +
    ¡Colabora con nosotros!
    Envíanos tu versión de esta canción

Letra de Dulce Locura
Vendo el inventario de recuerdos
de la historia más bonita que en la vida escuché,
vendo el guión de la película más triste,
la más bella que en la vida pude ver.
Vendo los acordes, la brillante melodía
y la letra que en la vida compondré,
vendo hasta el cartel donde se anuncia
el estreno del momento que en la vida viviré.
Entiendo que te fueras
y ahora pago mi condena,
pero no me pidas que quiera vivir
sin tu luna,
sin tu sol,
sin tu dulce locura
me vuelvo pequeña y menuda,
la noche te sueña y se burla,
te intento abrazar y te escudas.
Vendo una cámara gastada
que captaba la mirada que en la vida grabaré;
vendo dos entradas caducadas
que eran de segunda fila que en la vida romperé.
Vendo dos butacas reservadas hace siglos
y ahora caigo que en la vida me senté;
vendo hasta el cartel donde se anuncia
el estreno del momento que en la vida viviré.
Entiendo que te fueras
y ahora pago mi condena,
pero no me pidas que quiera vivir
sin tu luna,
sin tu sol,
sin tu dulce locura
me vuelvo pequeña y menuda,
la noche te sueña y se burla,
te intento abrazar
sin tu luna,
sin tu sol,
sin tu dulce locura,
llorando como un día de lluvia,
mi alma despega y te busca
en un viaje del que no vuelve nunca...
Sentiré cada noche al buscar
a tu luna en mi tejado,
el recuerdo de un abrazo
que aún me hace tiritar.
sin tu luna,
sin tu sol,
sin tu dulce locura
me vuelvo pequeña y menuda,
la noche te sueña y se burla,
te intento abrazar
sin tu luna,
sin tu sol,
sin tu dulce locura,
llorando como un día de lluvia
mi alma despega y te busca
en un viaje del que nunca volverá.

Videos de Dulce Locura
[ver más videos]

[ver todas las canciones]


© LaCuerda.net · Aviso Legal · Privacidad