Acordes de Guitarra » O »Ofunkillo » Riñones al jerez (Tab)

Riñones al jerez
Ofunkillo

  • Tablatura
           LA5              SI5           DO5
     e-----------------------------------------------------
     b-----------------------------------------------------
     g-----------------44-444-444-444-455-555-555-555------
     d-77-777-777-777-744-444-444-444-455-555-555-555------
     a-77-777-777-777-722-222-222-222-233-333-333-333------
     e-55-555-555-555-5------------------------------------
       Rojo-granadina, blanco..tequila,verde, verde menta
    
        MI5            RE5
     e-----------------------------------------------------
     b-----------------------------------------------------
     g--5h9~~~~~~~~~----7~~~~~~~~~-------------------------
     d--5h9~~~~~~~~~----7~~~~~~~~~--------------987--765---
     am 3h7~~~~~~~~~----5~~~~~~~~~--------------987--765---
     e------------------------------------------765--543---
       Y la espumita, la cervecita bien tira'
    
    (Avanza de Re a Mi durante todo el verso)
    Tengo los riñones al jerez
    
  • +
    ¡Colabora con nosotros!
    Envíanos tu versión de esta canción

Letra de Riñones al jerez
Rojo-granadina, blanco..tequila,verde, verde menta
Y la espumita, la cervecita bien tira'
(Avanza de Re a Mi durante todo el verso)
Tengo los riñones al jerez
de tanto meter y tanto beber.
Tengo los riñones al jerez
y miro al walter y todo es de colores
(Igual que en el coro)
De rodillas en el albero,
echando el pato le rezo al suelo.
Me están pisando cien rocieros,
me están matando en tres por cuatro
(Se queda solo el bajo)
Gran papasso quillo (3x)
(Todos con el coro)
Vaya morao que llevo en lo alto.
Vaya morao……………
Estoy nadando, en un gran vaso,
me estoy ahogando……………
En alcohol
Vaya morao, vaya morao,
vaya morao, vaya morao... (bis)
(Avanza de Re a Mi durante todo el verso)
Tengo los riñones al jerez
de tanto meter y tanto beber.
Tengo los riñones al jerez
y miro al walter y todo es de colores
al jerez, al jerez,...
Al jerez, al jerez, al jerez, al jerez
¡Valla morao que tengo en lo alto!
no se ke mas decir.... cualkier duda... kshimba_funk@yahoo.es



© LaCuerda.net · aviso legal · privacidad · contacto