Acordes de Guitarra » O »Ofunkillo » Nos vamos pal keli (Tab)

Nos vamos pal keli
Ofunkillo

  • Tab p/Bajo
    -18/19-19--12/13/12/13/12/13/ ----
    -17/18-18--11/12/11/12/11/12/ ----
    ----------------------------------
    ----------------------------------
    
    NOS VAMOS PAL KELLY
    
    Slap
    
    -9h7-7-----9------7------
    -------7h9----5h7-------5
    --------------------5h7--
    -------------------------
    
    NOS VAMOS PAL KELLY
    
    Slap
    
    ---6-----7-----8-----9-----8-----7--6--
    ---------------------------------------
    -4---5-5---6-6---7-7---6-6---5-5-------4
    ---------------------------------------
    
    
    Slapeo con Javi Marshiano
    
    
    ------7----------------------7----------
    --------------------5----------------5--
    ----5--5------5-5-7--------5---5-------7
    0-0-------0-0----------0-0-------0-0----
    
    
    
    ------7----------------------7----------
    --------------------5------------------5
    ----5--5------5-5-7--------5---5---5-7--
    0-0-------0-0----------0-0-------0------
    
    
    ------7----------------------7------7-----7--
    --------------------5---------------------7-5
    ----5--5------5-5-7--------5---5--5---5-7----
    0-0-------0-0----------0-0------------
  • +
    ¡Colabora con nosotros!
    Envíanos tu versión de esta canción





© LaCuerda.net · aviso legal · privacidad · contacto
DINAMICO