Acordes de Guitarra » O »Oceano » El derramo su amor por tí (Tab)

El derramo su amor por tí
Oceano

Letras, Acordes y Tabs para Guitarra, Bajo y Ukulele

  • e|----2-5-2---|----2-5-2---|----3-5-3---|---|
    B|---3-----3--|---2-----2--|---3-----3--|---|
    G|--2-------2-|--2-------2-|--0-------0-|-%-|
    D|-0----------|-0----------|-0----------|---|
    A|------------|------------|------------|---|
    E|------------|------------|------------|---|
    
    e|----2-5-2---|----2---9-12-17-|-15----------10-|---10--8--5|----------|
    B|---3-----3--|---2---8--------|---15---10--10--|-10---8--5-|-7-5------|
    G|--2-------2-|--2-------------|-----12---12----|-----------|----5-5/7-|
    D|-0----------|-0--------------|-0--------------|-----------|----------|
    A|------------|----------------|----------------|-----------|----------|
    E|------------|----------------|----------------|-----------|----------|
    
    
    RIFF 2
       H H
    e|-7---|
    B|---7-|
    G|-----|
    
  • +
    ¡Colabora con nosotros!
    Envíanos tu versión de esta canción

Letra de El derramo su amor por tí
RIFF 2
H H
Se le veía por ahí
Tú lo llegaste a conocer
Cuando sus ojos brillan
Aquella noche se durmió, Y no amanecí en su alma
Ya que escapaste sin mirar
Y sin dejar huellas pintadas
Él derramó su amor por ti
Poco antes de partir
Él derramó su amor por ti
Eras su luz y su calor
Oscuro y frío se quedo
Él derramó su amor por ti
Poco antes de partir
Él derramó su amor por ti
Él derramó su amor por ti (el derramo)
Poco antes de partir
Él derramó su amor por ti
Como volver el tiempo atrás
Y darle otra esperanza
Sin el poder de regresar
Se fue al cielo buscando el olvido
Aquella noche se durmió
Y no amanecí en su alma
Ya que escapaste sin mirar
sin dejar huellas pintadas
Él derramó su amor por ti (el derramo)
Poco antes de partir
Él derramó su amor por ti
Él derramó su amor por ti
Poco antes de partir
Él derramó su amor por ti
Él derramó su amor por ti RIFF 2
Y tú lo abandonaste por mí

Video de El derramo su amor por tí
[]




[El derramo su amor por tí chords][El derramo su amor por tí cifra]
© LaCuerda.net · aviso legal · privacidad · es · en · pt · contacto