Acordes de Guitarra » N »No Te Va Gustar » Tenés que saltar (Tab)

Tenés que saltar
No Te Va Gustar

Letras, Acordes y Tabs para Guitarra, Bajo y Ukulele

  • e|------------------------------------------|
    B|------------------------------------------|
    G|------10---------9----------/8------------|
    D|------10---------9----------/8------------|
    A|-------8---------7----------/6------------|
    E|------------------------------------------|
    
    
    
    INTRO: Trompetas, Trombón, etc.
    
    
    
    SIm B             SIm B
         Puedo ser yo
                       SIm B
         Puede ser otro
    SIm B            SIm B
         Una vez más      solo...
    SIm B             SIm B      SOL#
    
  • Intro (aerófonos):
    
    e-/----------------------------------------
    b-/----------------------------------------
    g-/-----5-6-8-6-5-------5-6-8-6-5-6_5------
    d-/---8-------------6-8---------------8-6-8
    a-/---------------8------------------------
    e-/----------------------------------------
    
    e-/----------------------------------------
    b-/-------7---6-----7---6------------------
    g-/---8-8---8---8-8---8---6-5-8-8-6-5------
    d-/-----------------------------------8----
    a-/----------------------------------------
    e-/----------------------------------------
    
    e-/----------------------------------------
    b-/-------7---6----------------------------
    g-/---8-8---8----6-8_6-5-------------------
    d-/----------------------6-8---------------
    a-/----------------------------------------
    e-/----------------------------------------
    
    _=ligar (pull off o hammer on)
  • Esta "partitura" es Para Saxo Tenor y Trompeta, como no se puede
    subir el pdf.
    o no se como, se las voy a intentar de escribir. Si pueden transcribirla mejor.
    Aca les dejo las notas con su figura
    (B, blanca. N, negra. C, corchea. S, semicorchea)...
    (., puntillo, b, bemol y #, sostenido). La partitura esta en 2/4 y en Lab mayo
    
    Esto es la intro de vientos, escuchar bien el tema sobre todo la parte
    de saxo que hace un acompañamiento.
    
    Saxo Tenor: (*, octava. **, doble octaba)
    |Mib*(N.), Fa*(C)|Sol*(N), Re**(C), Do*(C)|
    |Sib*(B)|Sib(N), Re*(N)|
    |Mib*(N.), Fa*(C)| Sol*(N), Re**(C), Do*(C)|
    |Sib*(C), Sib*(S), Sib*(S), Mib*(C), Re*(C)|Mib*(B)|
    |Re*(C), Re*(C), Fa*(C),Re*(C)|Mib*(B)|
    |Re*(C), Re*(C), Fa*(C),Re*(C)|Mib*(B)|
    |Sol*(B)|Fa*(B)|
    |Lab*(N), Sol*(C), Fa*(C)|Mib*(B)|
    |Re*(C), Re*(C), Fa*(C),Re*(C)|Mib*(B)|
    |Fa*(C), Sol*(S), Fa*(S), Mib*(C), Re*(C)|Mib*(B)||
    
    Trompeta: (*, octaba)
    |Do*(N.), Re*(C)|Mib*(N), Fa*(C), Mib*(C)|
    |Re*(B)|Sol(N), Sib(N)|
    |Do*(N.), Re*(C)|Mib*(N), Fa*(C), Mib*(
  • +
    ¡Colabora con nosotros!
    Envíanos tu versión de esta canción

Letra de Tenés que saltar
Puedo ser yo
Puede ser otro
Una vez más solo...
una vez más...
ESTRIBILLO:
Tenés que saltar
Ah...ah...
Ah...ah...
Tenés que saltar...
Vos elegís
1,2,3 salidas
Yo no se cual solo...
Que no se cual...
ESTRIBILLO:
Tenés que saltar
Ah...ah...
Ah...ah...
Tenés que saltar...
* este solo va con efecto (wuah wuah)
* en las partes que hay que estirar la cuerda le marque un *
Una canción
Que te saque de la duda
No la hay, solo...
Que no la hay...
ESTRIBILLO
FIN
* el solo tiene sus errores no esta del todo perfecto al igual
que la canción pero sirve como base para empezar a sacarla




[Tenés que saltar chords][Tenés que saltar cifra]
© LaCuerda.net · aviso legal · privacidad · es · en · pt · contacto