Acordes de Guitarra » N »Nilton Cesar » La última canción (Tab)

La última canción
Nilton Cesar

Letras, Acordes y Tabs para Guitarra, Bajo y Ukulele

  • e-------------------------------------------
    B----7-8-8----8-8-7---10-10----10-10-8-7----
    G--9----------------9--------------------9--
    D-------------------------------------------
    A-------------------------------------------
    E-------------------------------------------
    
    
             Em              Am
        Esta es la ultima cancion
                            Em
        que  yo canto para ti
              Am              D
        me canse de vivir esperando
                              G   Em
        y pensando en tu amor
            Am                D
        si mañana me ves por la calle
                G           Em           
        acompañado, comprenderas
    
  •        F#m                    Bm-C#7           F#m  Bm  C#7
    e-----------------------------------------------------
    B----9-10-10----10-10-9----12-12----12-12-10-9--------
    G--11-------------------11---------------------11-----
    D-----------------------------------------------------
    A-----------------------------------------------------
    E-----------------------------------------------------
    
    
             F#m              Bm
        Esta es la ultima cancion
                          F#m    Em - F#
        que  yo canto para ti
              Bm               E
        me canse de vivir esperando
                            A   F#m - F#7
        y pensando en tu amor
             Bm                  E
        si mañana me ves por la calle
               A              F#m
    
  • +
    ¡Colabora con nosotros!
    Envíanos tu versión de esta canción

Letra de La última canción
Esta es la ultima cancion
que yo canto para ti
me canse de vivir esperando
y pensando en tu amor
si mañana me ves por la calle
acompañado, comprenderas
que tu presencia ya no me importa
ni te quiero mas
pero tu siempre te acordaras
y tendras que llorar
este amor, lo mejor de mi vida
nunca mas lo tendras
y las lindas canciones de amor
que yo te dedique con mucho amor
yo te lo juro que nunca mas
las sentiras
y mañana se que esta cancion
escucharas en la radio tocar
odiaras tu orgullo maldito
que me hizo sufrir y tanto llorar
quiero que sufras y sientas por dentro
el dolor del amor
entonces sentiras,
el favor del corazon
y sufriras al ver
que voy con otro amor
(mismos acordes que la primera estrofa)
esta es la ultima cancion
que yo canto para ti
me canse de vivir esperando
y pensando en tu amor
si mañana me ves por la calle
acompañado, comprenderas
que tu presencia
ya no me importa
ni te quiero mas
que tu presencia
ya no me importa
ni te quiero mas

Video de La última canción
[]




[La última canción chords][La última canción cifra]
© LaCuerda.net · aviso legal · privacidad · es · en · pt · contacto