Acordes de Guitarra » N »Nihilismo » Caigo (Tab)

Caigo
Nihilismo

Letras, Acordes y Tabs para Guitarra, Bajo y Ukulele

  • G
    Otro dia mas sentado aca
    Em
    Mirando la vida que se va
    C
    Tanta mierda tanta soledad
    D
    Ya me deberia acostumbrar
    Mientras fumo las horas se van
    Mi destino escrito ya esta
    No conozco la felicidad
    No merezco nada en realidad
    Quiero que me digan la verdad
    Y creo en quien nunca la dira
    Mi alma dura ya no quiere hablar
    Y aunque quiera nadie va a escuchar
    
    G
    Caigo y estoy sin querer levantarme
    Em
    
  • e--3-2----0-2-3--3-----3-2----0-2-3-0-----
    B-------3-------------------3-------------
    G-----------------------------------------
    D-----------------------------------------
    A-----------------------------------------
    E-----------------------------------------
    
    e--3-2----0-2-3-------3-2----0-2-3--------
    B-------3--------1--------3--------3------
    G-----------------------------------------
    D-----------------------------------------
    A-----------------------------------------
    E-----------------------------------------
    
    G
    Otro dia mas sentado aca
    Em
    Mirando la vida que se va
    C
    Tanta mierda tanta soledad
    
  • Intro:
    G:-----------------|-----------------|---------|---------|
    D:-----------------|-----------------|---------|---------|
    A:-----------------|-----------------|--3------|-5-------|
    E:-3---------------|-0---------------|---------|---------|
    Verso:
    G:-----------------|-----------------|---------|---------|
    D:-----------------|-----------------|---------|---------|
    A:-----------------|-----------------|--333333-|-555555--|
    E:-333333----------|-000000----------|---------|---------|
    
    Final:(En la Parte Que Dice La La Laaaa...)
    
    G:-----------------|-----------------|
    D:-----------------|-----------------|
    A:-----------------|-----------------|
    E:-333333----------|-0000000---------|
    
    G:---55----- x2|----77------|x2
    D:--55---55-   |--77---77---|
    A:33--------   |55----------|
    E:----------   |-----------3|
  • +
    ¡Colabora con nosotros!
    Envíanos tu versión de esta canción

Letra de Caigo
Otro dia mas sentado aca
Mirando la vida que se va
Tanta mierda tanta soledad
Ya me deberia acostumbrar
Mientras fumo las horas se van
Mi destino escrito ya esta
No conozco la felicidad
No merezco nada en realidad
Quiero que me digan la verdad
Y creo en quien nunca la dira
Mi alma dura ya no quiere hablar
Y aunque quiera nadie va a escuchar
Caigo y estoy sin querer levantarme
No hay persona en este mundo que no te defraude
caigo y estoy sin querer levantarme
No hay persona en este mundo a quien no defraude
es una de las primeras ke saco... si esta mal pueden putearme a
fede_flema90@hotmail.com...




[Caigo chords][Caigo cifra]
© LaCuerda.net · aviso legal · privacidad · es · en · pt · contacto
DINAMICO