Acordes de Guitarra » N »Nihilismo » Falsedad (Tab)

Falsedad
Nihilismo

  • Letra y Acordes
            LA5   FA#5       RE5   MI5  LA5
    e--|-------------------------------------|-------
    b--|-------------------------------------|-------
    g--|----------------------7-7--9-9-------|-------BIS
    d--|---7-7-----4-4--------7-7--9-9--7-7--|-------
    a--|---7-7-----4-4--------5-5--7-7--7-7--|-------
    e--|---5-5-----2-2------------------5-5--|-------
    
    Intro:
    [LA5 FA#5 RE5 MI5 LA5] Bis
    
    LA
    Mentían todo el tiempo
    FA#
    buscaban un pretexto
    RE     MI
    para justificar
    LA
    Ke nunka me kisieron
    FA#
    
  • Tab p/Bajo
    En la primera parte solo puntea los tonos, junto a la guitarra,
    ya después comienza el Intro.
    
    *                                                                       x 2
    G:-----------------|-----------------|---------|---------|-----------------
    D:-----------------|-----------------|---------|---------|-----------------
    A:-----------------|-----------------|-5-5-----|-7-7-----|-5---------------
    E:-5-5-------------|-2-2-------------|---------|---------|-----------------
    
    INTRO:                                                                  x 2
    G:-----------------|-----------------|---------|---------|-----------------
    D:-----------------|-----------------|-----4-4-|-----6-6-|-----------------
    A:-----------4-----|-----------------|-5-5-----|-7-7-----|-----------------
    E:-5-5-5-5-5---5-0-|-2-2-2-2-2-2-2-2-|---------|---------|-5-5-5-5-5-5-5-5-
    
    
    VERSO:
    “Mentían todo el tiempo…”                                              x 2
    G:-----------------|-----------------|---------|-------
  • +
    ¡Colabora con nosotros!
    Envíanos tu versión de esta canción

Letra de Falsedad
Mentían todo el tiempo
buscaban un pretexto
para justificar
Ke nunka me kisieron
nunka me komprendieron
kerian disimular
su falsedad, falsedad, falsedad hipocresiaaa
No soy lo ke esperaron
ni soy lo ke kisieron
no voy a cambiar
Por ser un fracasado
hoy siento su desprecio
ke intentan disfrazar
con su falsedad falsedad, falsedad hipocresiaa
outro:
[su falsedad, falsedad, falsedad hipocresiaaa ]



© LaCuerda.net · aviso legal · privacidad · contacto
DINAMICO