Acordes de Guitarra » N »Nicky Jam » Hasta el amanecer (Tab)

Hasta el amanecer
Nicky Jam

Letras, Acordes y Tabs para Guitarra, Bajo y Ukulele

  •             FA#m            SIm
    Como tú te llamas, yo no sé
                RE               MI
    De donde llegaste, ni pregunté
                 FA#m                        SIm
    Lo único que sé, es que quiero con usted
                RE                    MI
    Quedarme contigo hasta el amanecer    [x2]
    
    
    
                FA#m                   SIm
    Óyeme mamacita, tu cuerpo y carita
                                     RE
    Piel morena, lo que uno necesita
                                  MI
    Mirando una chica tan bonita
    MI
    Y pregunto porque anda tan sólita
    
    
  • e--9--7--5--4--2--5--2--5--------------------
    b--------------------------3-----------------
    g--------------------------------------------
    d--------------------------------------------
    a--------------------------------------------
    e--------------------------------------------
    
    De dónde llegaste, ni  pregunté
    
    e--9--7--5--4--2--5--2--2--5--7--------------
    b--------------------------------------------
    g--------------------------------------------
    d--------------------------------------------
    a--------------------------------------------
    e--------------------------------------------
    
    Lo único que sé es que quiero con usted
    
    e--5--5--5--5--7--9--5--5--2--2--9--7-----
    b--------------------------------------------
    
  •   Em              Am           C         D
    e.-0-------0-------0-----------0---------2-----------|
    B.-0-------0-------1---0-------1---------3---0-------|
    G.-0-2-0---0-0---0-2-----2-0---0-0-----0-2-----2-0-2-|
    D.-2-----4-2---2---2-2-------4-2---2-2---0-2---------|
    A.-2-------2-------0-----------3---------------------|
    E.-0-------0-----------------------------------------|
    
    Em          Asus2       C         D
    e.-0-----------0-----------0---------2-|
    B.-0---------1-0---0-------1---------3-|
    G.-0-0-0-------2-----2-0---0-0-----0-2-|(Se toca 2 veces todo la TAB)
    D.-2-----2-2---2-2-------4-2---2-2---0-|
    A.-2-----------0-----------3-----------|
    E.-0-----------------------------------|
    
    
    La canción debe ser con CAPO en el 2do traste
    Para que suene como la original; en su defecto
    se toca con la progresión: F#m - Bm - D - E
    
  • +
    ¡Colabora con nosotros!
    Envíanos tu versión de esta canción

Letra de Hasta el amanecer
Como tú te llamas, yo no sé
De donde llegaste, ni pregunté
Lo único que sé, es que quiero con usted
Quedarme contigo hasta el amanecer [x2]
Óyeme mamacita, tu cuerpo y carita
Piel morena, lo que uno necesita
Mirando una chica tan bonita
Y pregunto porque anda tan sólita
Ven dale ahí ahí, moviendo todo eso pa' mí
No importa idioma ni el país
Ya vamonos de aquí, que tengo algo bueno para ti
Una noche de aventura hay que vivir
Óyeme ahí ahí, mami vamos a darle
Rumbeando y bebiendo a la vez
Tu tranquila que yo te daré
Una noche llena de placer
Yo pendiente a ti, como bailas así
Con ese movimiento me hipnotizas
Me voy acercando hacia ti
Y te digo suave al oído
Escúchame mami
Yo te estoy queriendo
Siento algo por dentro
Y tú me dices: "Estás muy loco, deja eso"
Mami yo te estoy queriendo
Siento algo por dentro
Me muero por llevarte
fin.




[Hasta el amanecer chords][Hasta el amanecer cifra]
© LaCuerda.net · aviso legal · privacidad · es · en · pt · contacto