Tablatura para Guitarra de Nicky Jam: Hasta el amanecer
Conexión · Inscripción
Letras y Acordes
Pantalla Completa
Imprimir
Versión Texto
Añadir Favorito
Otras Versiones

Mostrar Diagramas
Desfile Automático
Manipular Acordes
Formato del Texto


Hasta el amanecer(TAB)

Nicky Jam

calidad:
njmx0113
AUTOR: Nicky Jam
ALBUM: Saga White Black (2016)
Enviado por Jorge
El punteo se puede usar como una pequeña intro
De la canción.

Cómo tú te llamas,  yo no sé

e--9--7--5--4--2--5--2--5--------------------
b--------------------------3-----------------
g--------------------------------------------
d--------------------------------------------
a--------------------------------------------
e--------------------------------------------

De dónde llegaste, ni  pregunté

e--9--7--5--4--2--5--2--2--5--7--------------
b--------------------------------------------
g--------------------------------------------
d--------------------------------------------
a--------------------------------------------
e--------------------------------------------

Lo único que sé es que quiero con usted

e--5--5--5--5--7--9--5--5--2--2--9--7-----
b--------------------------------------------
g--------------------------------------------
d--------------------------------------------
a--------------------------------------------
e--------------------------------------------

Quedarme  contigo  hasta  el amanecer

e--7--9--7--5--4--2--2--5--2--2--5--7--------
b--------------------------------------------
g--------------------------------------------
d--------------------------------------------
a--------------------------------------------
e--------------------------------------------

La canción debe ser con CAPO en el 2do traste
Para que suene como la original; en su defecto
se toca con la progresión: F#m - Bm - D - E

Em Am Como tú te llamas, yo no sé
C D De dónde llegaste, ni pregunté
Em Am Lo único que sé, es que quiero con usted
C D Quedarme contigo hasta el amanecer (Bis)
Em Óyeme mamacita, tu cuerpo y carita
Am Piel morena, lo que uno necesita
C Mirando una chica tan bonita
D Y pregunto porque anda tan sólita
Em Ven dale ahí ahí, moviendo todo eso pa' mí
Am No importa idioma ni el país
C Ya vamonos de aquí, que tengo algo bueno para ti
D Una noche de aventura hay que vivir
Em Am Óyeme ahí ahí, mami vamos a darle
C Rumbeando y bebiendo a la vez Tu tranquila que yo te daré
D Una noche llena de placer
Em Am Como tú te llamas, yo no sé
C D De donde llegaste, ni pregunté
Em Am Lo único que sé, es que quiero con usted
C D Quedarme contigo hasta el amanecer
Em Am Yo pendiente a ti, como bailas así
C Con ese movimiento me hipnotizas
D Me voy acercando hacia ti Y te digo suave al oído
Em Escúchame mami
Am Yo te estoy queriendo
C Siento algo por dentro
D Y tú me dices: "Estás muy loco, deja eso"
Em Am Mami yo te estoy queriendo
C Siento algo por dentro
D Me muero por llevarte
Em Am Como tú te llamas, yo no sé
C D De donde llegaste, ni pregunté
Em Am Lo único que sé, es que quiero con usted
C D Quedarme contigo hasta el amanecer
Em Am Como tú te llamas, yo no sé
C D De donde llegaste, ni pregunté
Em Am Lo único que sé, es que quiero con usted
C D Quedarme contigo hasta el amanecer (Bis) --Espero les haya gustado, saludos--
Este fichero es trabajo propio de su transcriptor y representa su interpretación personal de la canción. El material contenido en esta página es
para exclusivo uso privado, por lo que se prohibe su reproducción o retransmisión, así como su uso para fines comerciales.

© LaCuerda.net · Aviso Legal · Privacidad