Acordes de Guitarra » N »Nicho Hinojosa » Tus viejas cartas (Tab)

Tus viejas cartas
Nicho Hinojosa

Letras, Acordes y Tabs para Guitarra, Bajo y Ukulele

  • E-0
    B-3
    G-2
    D-2
    A-0
    E-x
    
    INTRO:
      D         Bm               G         D
    e----3-2-----------------2----------0--2-2--2-
    B---------------3-2--2h3----------3----3-3--3-
    G--2--------------------------0--------2-2--2-
    D-0-----------4------------------------0-0--0-
    A---------0-2---------------------------------
    E---------------------------3-----------------
    
     (AQUI DESLIZAN "D" DE ESTA MANERA Y EMPIEZAN LOS RASGUEOS)
    
     Db D Bm G Asus A
    E-1/2-
    
  •   RE             SIm             MIm7            RE/A
    E-------    E--------------    E-0--------    E------
    A-------    A-2------------    A---2------    A-0-0-0
    D-0-----    D---4----------    D-----2----    D------
    G--2----    G--------------    G----------    G------
    B-------    B-----3-2-2-3--    B-----3---3    B-3-3-3
    e---3-2-    e-------------2    e-------0--    e-2-2-2
    
    D-Bm-Mm7-D/A
    
    D               Bm
    ESTUVE LEYENDO, TUS VIEJAS CARTAS
    Mm7             A
    TU ME HABLABAS, DE AMOR
    
    D               A
    USANDO PALABRAS QUERIAS DECIRME
    Mm7               A
    YA NO PUEDO ESTAR SIN VOS
    
    
  • INTRO: Dmaj7-Bm7-Em7-A6 X2
    
     Dmaj7         Bm7
    ESTUVE LEYENDO, TUS VIEJAS CARTAS
      Em7           A  Asus4-A
    TU ME HABLABAS, DE AMOR
    
     Dmaj7            Bm7
    USANDO PALABRAS QUERIAS DECIRME
    Em7                    A Asus4
    YA NO PUEDO ESTAR SIN VOS
    
    CORO:
     Em         A   Bm7
    Y DONDE QUEDO AHORA
     Em       A     Bm7
    ESA HERMOSA ILUSION
    Em     A       Bm7
    DE REGALARTE A VOS
        C9          Asus4
    
  •   D        Bm7            Em9     A7*        D  Bm7  Em9  A7*
    e-----3-2-------------2-------0---2-2--2--
    B--------------3-2-2h3------3-----2-2--2--
    G---2-----------------------0-----0-0--0--
    D--0---------4--------------------2-2--2--
    A---------0-2-------------2-------0-0--0--
    E------------------------0----------------
    
    
       D            Bm7
    Estuve leyendo, tus viejas cartas,
        Em9           A   Riff 1
    tú me hablabas, de amor,
      D                  Bm7
    usando palabras, querías decirme,
    Em                      A7*
    ya no puedo estar sin vos.
    
    CORO
         Em    A5    Bm7  Em         A5    Bm7
    
  •                                                      D  Bm7  Em  Asus7  D*  D        
    E----------------------------------------------------------------------------------
    A-----------2------------------2---------------------------------------------------
    D--0-------------------------------------------------------------------------------
    G----2--------2------------------0-------------------------------------------------
    B----------------3-2--2_3----------2-----3-3----3----------------------------------
    e -----3-2-----------------2---------0---2-2----2----------------------------------
    
          R1           R2               R3             R4
       Estuve leyendo tus viejas cartas tu me hablabas de amor,
      R1              R2            R3                   R5
    usando palabras querias deirme 'ya no puedo estar si vos'...
        Em      A    Bm7  Em     A        Bm7
    ¿y donde quedó ahora esa hermosa ilusión?,
    Em      A       Bm7      C9         D*  D 
    de regalarte a vos lo mejor de mi amor...
    
    
         D          D9     Bm7              Em     Asus7        D**  
       Creimos que todo habia cambiado no abria razón ya para estar mal,
    
  • +
    ¡Colabora con nosotros!
    Envíanos tu versión de esta canción

Letra de Tus viejas cartas
(AQUI DESLIZAN "D" DE ESTA MANERA Y EMPIEZAN LOS RASGUEOS)
Estuve leyendo
tus viejas cartas
donde me hablabas
de amor
usando palabras
querias decirme
ya no puedo estar
sin vos
Y donde quedo ahora
esa hermosa ilusion
de regalarte a vos
lo mejor de mi amor
Creimos que todo
habia cambiado
no habia razon
ya para estar mal
pero el otoño
golpeo nuestra puerta
y como una hoja
nuestro amor murio
Y donde quedo ahora
esa hermosa ilusion
de regalarte a vos
lo mejor de mi amor
A veces los sentimientos
no se pueden manejar
y cuando nos atrapan
no podemos escapar
y es asi, nuestro corazon sufre
Y sigue y sigue
dando vueltas y vueltas
la loca rueda de la vida
y sigue rodando en mi cabeza
el enigma cautivante de tu voz
Y donde quedo ahora
esa hermosa ilusion
de regalarte a vos
lo mejor de mi amor
lo mejor de mi amor
lo mejor de mi amor
de el amor




[Tus viejas cartas chords][Tus viejas cartas cifra]
© LaCuerda.net · aviso legal · privacidad · es · en · pt · contacto