Tablatura para Bajo de Nicho Hinojosa: Todo a pulmón
Conexión · Inscripción
Letras y Acordes
Pantalla Completa
Imprimir
Versión Texto
Añadir Favorito
Otras Versiones

Mostrar Diagramas
Desfile Automático
Formato del Texto


Todo a pulmón(BAJ)

Nicho Hinojosa

calidad:
nhin0243
AUTOR: Alejandro Lerner
ALBUM: En Vivo
Enviado por Aarón
Califiquenla porfa
Un saludo a todos los bajistas

INTRO

G|---|---|---|---|
D|---|---|---|---|
A|---|-0-|---|-0-|
E|-0-|---|-0-|---|

VERSO 1

G|---|---|---|---|---|---|--------|
D|---|---|---|---|---|---|--------|
A|---|-0-|---|-0-|---|-4-|--------|
E|-0-|---|-0-|---|-0-|---|-2---2-2|
Que dificil se me hace....

VERSO 2

G|---------|---|---|---|---|---|
D|---------|---|---|---|---|---|
A|-0---0-0-|---|-4-|---|-2-|---|
E|---------|-0-|---|-2-|---|-0-|

Si es de dia o de vuelta.......

VERSO 1

Que dificil se ma hace......

VERSO 2

Esta realidad tirana.......

CORO

G|---------|---------|---|---------|
D|---------|---------|---|---------|
A|---------|-0---0-0-|---|-2---2-2-|
E|-0---0-0-|---------|-0-|---------|

Cada nota cada idea......


G|---------|---------|---|---------|
D|---------|---------|---|---------|
A|---------|-0---0-0-|---|-2---2-2-|
E|-0---0-0-|---------|-0-|---------|

Cada fecha postergada......


G|---------|---------|
D|---------|---------|
A|-3---3-3-|---------|
E|---------|-0---0-0-|

Todo a pulmon, todo a pulmon


VERSO 1

Que dificil se me hace......


VERSO 2

Defender mi idiologia.....


VERSO 1

Que dificil se me hace.......


VERSO 2

Un amigo en la carrera.....


CORO
Este fichero es trabajo propio de su transcriptor y representa su interpretación personal de la canción. El material contenido en esta página es
para exclusivo uso privado, por lo que se prohibe su reproducción o retransmisión, así como su uso para fines comerciales.

© LaCuerda.net · Aviso Legal · Privacidad