Acordes de Guitarra » N »Nicho Hinojosa » Siempre (Tab)

Siempre
Nicho Hinojosa

Letras, Acordes y Tabs para Guitarra, Bajo y Ukulele

  • INTRO   G-C9-G-D-C9
    
       G        C9
    Solo Dios.. sabe
    G                                             C    (C)  (B)  (A)
    Cuanto te he buscado y no te halle
    Am
    Busco en tu mirada
    D                        G           D/F#
    Por si hay una minima señal
    
    Em
    No pienso rendirme
    C              C*                 G      D/F#
    ya son muchos años tras de ti
    Em          Em9
    Este amigo te ama
     C           Am        D      Dsus9-D
    Eres el sociego que la vida me nego
    
    
  •    G              C9      C/B                  Am7  D
    e-------------------------------------------------------|
    B--0--0----1p0----3--3----1p0----3--3----1p0--------3---|
    G---0----0----0----0----0----0----0----0----0---0---2---|
    D----0---------0----0---------0----0---------0------0---|
    A-----------------3--------------2--------------0-------|
    E--3----------------------------------------------------|
    
             G*                                        G*   3X000X
    Solo Dios, sabe,
                                     C9   /B   Am
    cuanto te he buscado y no te hallé
                        D
    busco en tu mirada,
                             G   D/F#  Em
    por si hay una mínima señal.
    
                   Em7    C9
    No pienso rendirme,
                                G   D/F#  Em
    
  •     G                         C                              C/B                     Am D
    e ----------------------------------------------------------------------------------------|
    B --0--------0--1-p-0---------3--------3--------1-p-0---------3--------1-p-0---------1--3-|
    G --0-----0------------2-p-0-----0--------0------------2-p-0-----0------------2-p-0--0--2-|
    D --0--0----------------------------2--------2----------------------0----------------2--0-|
    A ----------------------------3--------3----------------------2----------------------0----|
    E --3-------------------------------------------------------------------------------------|
    
             G
    Sólo Dios sabe
                                   C    C/B
    cuanto te he buscado y no te hallé,
    Am              
    busco en tu mirada
    D7/F#                   G    G/F#
    por si hay una mínima señal,
    Em              Em/D                                  
    no pienso rendirme 
    C                     G   G/F#
    ya son muchas años tras de tí,
    
  • +
    ¡Colabora con nosotros!
    Envíanos tu versión de esta canción

Letra de Siempre
Cuanto te he buscado y no te halle
Busco en tu mirada
Por si hay una minima señal
No pienso rendirme
ya son muchos años tras de ti
Este amigo te ama
Eres el sociego que la vida me nego
Tengo amor que llora triste
Porque no te puedo amar
Me has quitado media vida
es amor sin completar
Como flecha sin un blanco
Como invierno sin llover
Como barca en un desierto
Como fruta.. sin comer.
cuanto me ha mordido este dolor
de verte con otros
de ser confidente y nada mas
Con el pensamiento
muchas noches fuiste mi mujer
Tu palabra siembra
mi fiebre amorosa que no tiene a donde ir
tengo amor que llora triste.....etc.




[Siempre chords][Siempre cifra]
© LaCuerda.net · aviso legal · privacidad · es · en · pt · contacto