Acordes de Guitarra » N »Nicho Hinojosa » Quien te cantará (Tab)

Quien te cantará
Nicho Hinojosa

Letras, Acordes y Tabs para Guitarra, Bajo y Ukulele

  • F#m    F#m/E       F#m/D
    Ayer pensé decirte adiós
       E            Amaj7
    y me faltó el valor
    D                    G5          C#7-9   C#7
    es que había en tus ojos tanto amor;
    F#       F#m/E      F#m/D
    que fácil es decir adiós
       E           Amaj7
    que fácil olvidar
    D             G5           C#7-9   C#7
    que difícil será para los dos . . .
    
                  F#m  F#m/E  F#m/D
    Quien te cantará
                   E   C#7-9  C#7
    con esta guitarra
                     F#m  F#m/E  F#m/D
    quien la hará sonar
                   E
    
  • F#m                      D
    Ayer pense en decir adios
       E             A
    y me falto el valor
     D
    es que habia en tus ojos
             C#7
    tanto amor..
    
    F#m                     D
    Que facil es decir adios
         E         A
    Que facil olvidar
     D
    Que dificil sera
               C#7
    para los dos..
    
    CORO
    
    
  • Em
    Ayer pense en decir adios
    D
    y me falto el valor
    C
    es que habia en tus hojos
    B7
    tanto amor..
    
    Em
    Que facil es decir adios
    D
    Que facil olvidar
    C
    Que dificil sera
    B7
    para los dos..
    
    CORO
    
    
  • F#m
    e------------------------------2-----2-----
    B------2-----2-----------2-------2-----2---
    G--------2-----2-----------2---------------
    D--2H4-----4-----4---2H4-----4-----4-----4-
    A------------------------------------------
    E-2-----------------2----------------------
    
       F#m       Bm            E          A     D                     C#
    e------------2---------------0------------2-0-0----2-4-2-1-4--2-4-4-
    B-----2-----2-2---3-2-3-----0-0---2-3-5---3-3-3---0------0---0----5-
    G----2-2---2---2--------2--1---1--2-4-6--2-2-2-2--------------------
    D---4---4-2-----------------------------0---------------------------
    A---------------2----------------0---------------0------------------
    E-2-----------------------0-----------------------------------------
    Ayer pensé decirte adiós, y me faltó el valor Es que había en tus ojos tanto amor
    
       F#m       Bm            E          A     D                     C#
    e------------2---------------0------------2-0-0--4-1-4-2-4---2-4-
    B-----2-----2-2---3-2-3-----0-0---2-3-5---3-3-3--0-----0---0-----
    
  • E-|---------------------------2----2--------
    B-|-----2-2--2--2-------2-2----2----2-------
    G-|----2---2--2--2-----2---2---------2------
    D-|---4-----4--4--4---2-----2----2----------
    A-|--4---------------4----------------------
    E-|-2---------------2-----------------------
    
    [Lo que esta en parentesis va rasgueado]
    
      F#m     F#msus      C#  C#sus C#
      Ayer pense decirte adiós
    E-|-----------------------4-----------------
    B-|-----2-2-----2------7--------------------
    G-|----2---2---2-2------6-------------------
    D-|---4-------2------6----------------------
    A-|--4-------4------4-----------------------
    E-|-2---------------------------------------
       E
       y me falto el valor
    E-|-------------------------------0---------
    
  • +
    ¡Colabora con nosotros!
    Envíanos tu versión de esta canción

Letra de Quien te cantará
Ayer pensé decirte adiós
y me faltó el valor
es que había en tus ojos tanto amor;
que fácil es decir adiós
que fácil olvidar
que difícil será para los dos . . .
Quien te cantará
con esta guitarra
quien la hará sonar
cuando no este yo,
quien dará a tu casa color
y a tu lecho calor
quien te hará el amor . . . (Se repite)
Quien tachará mi dirección
de tu libreta azul
archivando mi historia en un cajón;
y tu que harás a donde irás
tal vez me olvidarás
y pondrás mi guitarra en un rincón . . .
Si alguno de los acordes son irreconocibles por favor
envienme un e-mail para explicarselos.




[Quien te cantará chords][Quien te cantará cifra]
© LaCuerda.net · aviso legal · privacidad · es · en · pt · contacto