Acordes de Guitarra » N »Nicho Hinojosa » Ojalá (Tab)

Ojalá
Nicho Hinojosa

Letras, Acordes y Tabs para Guitarra, Bajo y Ukulele

  • intro: Am   ,   E+5  ,  Am7 , E+5  ) *  2
    EN LAS PARTES DONDE SE TOCA EL INTRO LO PUSE COMO (**)
    
            (**)
           Ojalá que las hojas no te toquen el cuerpo   
            
            cuando caigan,
            G                                      Am
          para que no las puedas convertir en cristal.
       Bm                 E7                  Am
          Ojalá que la lluvia deje de ser milagro que 
            Am/G#         F#m     E , D
            baja por tu cuerpo.
                  C#7    F#m            Bsus4,B,Am        
    Ojalá que la luna pueda salir sin ti.
            
    
              Am/G       F             E7         Am   
          Ojalá que la tierra no te bese los pasos.
        (**)                              G
    
  •   C*-Em*-A*-Dm*-Fm*-G*-C#m-Bm-Bm/A-F#-E-Esus-Dm-Dm/C-#1 -A- Amm Fm G
    E)8---7-  -5  --5---8---3---4--2---2- -2 --0- -0---1---1---0-0-0 1  -3
    B)8---8-  -5  --6---9---3---5--3---3---2- -0 --0---3---3---3-2-1-1  -3
    G)9---9-  -6-  -7---10--4---6--4---4- -3- -1 --2---2---2---0--2- 2- 2  -0
    D)10--9-  -7  --7---10--5---6--4---4---4- -2- -2---0---0---x-2-2- 3  -0
    A)10--7-  -7  --5---8---5---4--2---0---4- -2- -2---x---3---1--0- 0- 3 -2
    E)8---x-   -5  --x--x---3-- -x-x---x---2- -0- -0---x---x---x--x- x- 1  -3
    
    Intro:
    
    e-------10---------------9-------------8-------------------7
    B-----10--10--------10-10--------10--10----------10----10
    G---10------10----10-----10----10------10----10---------10
    D--0-------------0------------0------------------0-------------
    A---------------------------------------------------------------
    E---------------------------------------------------------------
    
    1.-Ojalá que las hojas no te toquen el cuerpo cuando caigan
    [C*]para que no las puedas convertir en cris[intro]tal
    
    
  • LAm-LAmMAJ7-LAm7-LAmMAJ7(MI)(Sol)
    LAm-LAmMAJ7-LAm7-LAmMAJ7(MI)(Sol)
    
    LAm    LAmMAJ7    LAm7
       ojala que las hojas
              LAmMAJ7   LAm           LAmMAJ7-LAm7-LAmMAJ7
       no te toquen el cuerpo cuando caigan
    SOL                              LAm        LAmMAJ7-LAm7-LAmMAJ7
       para que no las puedas convertir en cristal.
    
    SOL                MI7
        Ojalá que la lluvia
                       LAm
        deje de ser milagro que
         SOL#m           FA#m
        baga por tu cuerpo.
    DO#7                                     FA#m-SIsus4/FA#-SI
        Ojalá que el deseo se valla tras de ti.
    
    LAm     LAmMAJ7   LAm7
    
  •    Am      Am/G#    Am7    Am/G#
    e-------------------------------------|
    B-----1-------1-------1-------1-------|
    G----2-2-----1-1-----0-0-----1--------|
    D---2---2---2---2---2---2---2---------|
    A--0-------0-------0-------0----------|
    E--------------------------------0h3--|
    
    
    Riff 1                               Riff 1              Riff 2
    Ojalá que las hojas no te toquen el cuerpo cuando caigan,
                                          Riff 1
    para que no las puedas convertir en cristal,
    G              E7                  Am        Am/G#        F#m
    ojalá que la lluvia, deje de ser milagro que baja por tu cuerpo,
    C#7                                 F#m     F#m7      Bsus9  B
    ojalá que el deseo, se vaya tras de ti.
    
    Am Am/G        F  E7                 Riff 1
    Ojalá que la tierra, no te bese los pasos.
    
  •     Am       A*       Am7      A*    
    6 -----------------------------------0h2----
    5 --0--------0--------0--------0------------
    4 ----2--------2--------2--------2----------
    3 -----2--------1--------0--------1---------
    2 ------1--------1--------1--------1--------
    1 -------0--------0--------0----------------
    
    
       Am       A*       Am7      A*    
    6 -----------------------------------0h2----
    5 --0--------0--------0--------0------------
    4 ----2--------2--------2--------2----------
    3 -----2--------1--------0--------1---------
    2 ------1--------1--------1--------1--------
    1 -------0--------0--------0----------------
    
        Am        A*        Am7       A*    
    6 ------------------------------------------
    5 --0---------0---------0---------0---------
    
  • +
    ¡Colabora con nosotros!
    Envíanos tu versión de esta canción

Letra de Ojalá
EN LAS PARTES DONDE SE TOCA EL INTRO LO PUSE COMO (**)
(**)
Ojalá que las hojas no te toquen el cuerpo

cuando caigan,
para que no las puedas convertir en cristal.
Ojalá que la lluvia deje de ser milagro que
baja por tu cuerpo.
Ojalá que la luna pueda salir sin ti.

Ojalá que la tierra no te bese los pasos.
Ojalá se te acabe la mirada constante,
la palabra precisa, la sonrisa perfecta.
Ojalá pase algo que te borre de pronto,
una luz cegadora, un disparo de nieve.
Ojalá por lo menos que me lleve la muerte,
para no verte tanto, para no verte siempre.
En todos los segundos, en todas las visiones.
Ojalá que no pueda tocarte ni en canciones.
(**)
Ojalá que la aurora, no de gritos que caigan
en mi espalda.
Ojalá que tu nombre, se le olvide a esa voz.
Ojalá las paredes no retengan tu ruido de
camino cansado.
Ojalá que el deseo se vaya tras de ti,
a tu viejo gobierno de difuntos y flores.
Ojalá se te acabe la mirada constante,
la palabra precisa, la sonrisa perfecta.
Ojalá pase algo que te borre de pronto,
una luz cegadora, un disparo de nieve.
Ojalá por lo menos que me lleve la muerte,
para no verte tanto, para no verte
siempre
En todos los segundos, en todas las visiones.
Ojalá que no pueda
tocarte ni en canciones.




[Ojalá chords][Ojalá cifra]
© LaCuerda.net · aviso legal · privacidad · es · en · pt · contacto