Acordes de Guitarra » N »Nicho Hinojosa » Frente a frente (Tab)

Frente a frente
Nicho Hinojosa

Letras, Acordes y Tabs para Guitarra, Bajo y Ukulele

  •      A9-D ,A9-D 
    
         A   D 
       Queda
    
               A   D 
    que poco queda
    
                 G
    de nuestro amor
    
      F           C
    apenas queda nada
    
      F         E7SUS4    E7
    apenas ni palabras quedan.
    
           A   D 
         Queda
    
    
  •     Am Dm           Am Dm           G
    QUEDA, QUE POCO QUEDA DE NUESTRO AMOR
                    C Dm                Am
    APENAS QUEDA NADA, APENAS NI PALABRAS
        E7
    QUEDAN...
    
        Am Dm             Am Dm             G
    QUEDA, SOLO EL SILENCIO QUE HACE ESTALLAR
                        C Dm                   Am
    LA NOCHE FRIA Y LARGA, LA NOCHE QUE NO ACABA
    E7            Am
    SOLO...ESO QUEDA.
    
              Am         G       F
    SOLO QUEDAN LAS GANAS DE LLORAR, AL VER QUE
              G          E7              Am
    NUESTRO AMOR SE ALEJA, FRENTE A FRENTE, BAJAMOS
            G         F         G                C      E7
    LA MIRADA, PUES YA NO QUEDA NADA DE QUE HABLAR, NADA...
    
  •   Am    Dm      G      F      C    Dm2/B    E7    Am/G  E7sus4   G4     Am2
    E - 0  E - 1  E - 3  E - 1  E - 0  E - 0  E - 0  E - 0  E - 0   E - 3  E - 0   
    B - 1  B - 3  B - 3  B - 1  B - 1  B - 3  B - 4  B - 1  B - 0   B - 3  B - 0
    G - 2  G - 2  G - 0  G - 2  G - 0  G - 2  G - 2  G - 2  G - 2   G - 5  G - 0
    D - 2  D - 3  D - 0  D - 3  D - 2  D - 3  D - 0  D - 2  D - 0   D - 3  D - 5 
    A - 0  A - 0  A - 2  A - 3  A - 3  A - 2  A - 2  A - X  A - 2   A - 5  A - 7 
    E - 0  E - X  E - 3  E - 1  E - 3  E - 0  E - 0  E - 3  E - 0   E - 3  E - 0
    
    
    INTRO
        Am2      Dm       Am2      Dm
    e --------0--1--1-----------0--1--1-h-3-p-1-p-0-----
    B --0--------3-----1--0--------3-----------------2--
    G --2--2-----2--------2--2-----3--------------------
    D --2--------0--------2--------0--------------------
    A --0-----------------0-----------------------------
    E --------------------------------------------------
    
        Am2      Dm     Am2     Dm
    e --------0--1-----------0--1--1-----0--|
    
  •     Am         Dm         Am         Dm
    6|-----------------------------------------------|
    5|--0---------------------0----------------------|
    4|--2----------0----------2----------0-----------|
    3|--2--2-------2--2-------2--2-------2-------2---|
    2|--0------1---3------3---0------1---3---------1-|
    1|-------0-----1----1----------0-----1-3h1-0-----|
    
        Am         Dm         Am         Dm
    6|-------------------------------------------|
    5|--0---------------------0------------------|
    4|--2----------0----------2----------0-------|
    3|--2--2-------2--2-------2--2-------2-------|
    2|--0------1---3--1-------0------1---3-------|
    1|-------0-----1---------------0-----1---1---|
    
    
    VERSO 1
    
       Am        Dm          Am        Dm
    
  • +
    ¡Colabora con nosotros!
    Envíanos tu versión de esta canción

Letra de Frente a frente
Queda
que poco queda
de nuestro amor
apenas queda nada
apenas ni palabras quedan.
Queda
que hace estallar
la noche fria y larga
la noche que no acaba
al ver que nuestro amor, se aleja
frente a frete, bajamos la mirada
pues ya no queda nada
de que hablar, nada.
Queda
poca ternura
y alguna vez
haciendo una locura
un beso y ala fuerza, queda.
Queda
un gesto amable
para no hacer
la vida insoportable
y asi ahogar las penas
al ver que nuestro amor, se aleja
frente a frente, bajamos la mirada
pues ya no queda nada
de que hablar,nada




[Frente a frente chords][Frente a frente cifra]
© LaCuerda.net · aviso legal · privacidad · es · en · pt · contacto