Acordes de Guitarra » N »Nicho Hinojosa » Entre ella y tú (Tab)

Entre ella y tú
Nicho Hinojosa

Letras, Acordes y Tabs para Guitarra, Bajo y Ukulele

  •            C            Em
    Entre ella y tú hay dos mundos
    F      G               C   A4  A7
    uno de amor y otro de egoismo
         Dm              G            C   A4  A7
    no entiendo el porque de tus dudas
         Dm            Dm7     G
    si entre ella y tú hay un abismo.
    
    
               C      Em
    Entre ella y tú, yo elegí
    F          G              C   A4  A7
    entre el infierno o el cielo
      Dm         G            C  A4  A7
    poder ver la luz o ser ciego
      Dm                    G
    poder respirar o ahogarme,
      Dm                 G
    poder ser yo mismo o nadie . . .
    
  •                     DO              MIm        REmaj-           SOL/DO SOL*  DO    LA9 LA   
    Entre ella y tú hay dos mundos; uno de amor y otro de egoísmo, 
               REmaj-      SOL*              DO  LA9 LA      REmaj-                 SOL* SOL/DO SOL 
     no entiendo el porque de tus dudas, si entre ella y tu hay un abismo,
                       DO  DO0  MIm      MI-/12 REm            SOL*             DO  LA9 LA  
    Entre ella y tú            yo elegí          entre el infierno o el cielo,             
    REmaj-          SOL           DO  DO0 LA9 LA 
      poder ver la luz o ser ciego,
           REm                     SOL* SOL/DO     REm              RE9          SOL  SOL/DO SOL*
    Poder respirar o ahogarme,        poder ser yo mismo o nadie, 
               FA                 SOL9   LAm       MIm       MI-/12   LA9 LA  LA9 LA  
     entre ella y tú, entre ella y tú,  no vale la pena ni hablar del tema 
           REmaj-                       SOL        REmaj-                         SOL 
    tu amor ha quemado su huella prefiero ser tuyo que de ella,
                       do9+ mim mi-/do# remaj- sol/do sol*
     entre ella y tú, 
                      DO  MIm                REmaj-           SOL/DO SOL*         DO    LA9 LA   
    entre ella y tú     quiero vivir de cara a la verdad y no de espaldas, 
      REmaj-     SOL*       DO  LA9 LA      REmaj-                 RE9            SOL 
    ahora se ganar y perder                     ahora se que quiero y a quién 
    
  • e.|-------3--1-0-------------3------3--3----1----1--1-0----------------------------0--------3------1-0-------3--|e
    b.|--1---1-------3-1--0----0-------0--0----------1------3----1---1--1h0-------0h1h3-----1---1---------3-1-0-----|b
    g.|-----0----------------0-----------------------3--------(0)-(0)---------------------------2-------------------|g
    D.|--2----------------2--------------------------0------------------------------------------0-------------------|D
    A.|-------------------------------------------------------------------------------------------------------------|A
    E.|-------------------------------------------------------------------------------------------------------------|E
    
    
    
    e.|----3--3-----1---1--1--1--0-------------------|e
    b.|--0---0------1----------------3--1--1--1h0----|b
    g.|----------------------------------------------|g
    D.|----------------------------------------------|D
    A.|----------------------------------------------|A
    E.|----------------------------------------------|E
    
    
    
                   C           Em         F     G              C   Asus-A7    Dm7            G         C
    e.|---------------0-----------0--------------------------------------------1---------------3---------0----|e
    
  •   D-----2------------------------------------------------------------------------------------------
      A---3--------------------------------------------------------------------------------------------
      E------------------------------------------------------------------------------------------------
    
    
    
      e-----------0-------3-p---1---0------------------3--3---3-------1----1---1---------------------------
      b---------1-----------------------3---1---0-p----3----3---3-----1----1---1--------3---1---0---0---1--
      g-------0-------------------------------------------------------2------------------------------------
      D-----2------------------------------------------0---------------------------------------------------
      A---3------------------------------------------------------------------------------------------------
      E----------------------------------------------------------------------------------------------------
    
    
          C               Em
       Entre ella y tu hay dos mundos
       F        G                C  A4 A7
       uno de amor y otro de egoismo
             Dm          G        C  A4  A7 
       no entiendo el porque de tus dudas
    
  • +
    ¡Colabora con nosotros!
    Envíanos tu versión de esta canción

Letra de Entre ella y tú
Entre ella y tú hay dos mundos; uno de amor y otro de egoísmo,
no entiendo el porque de tus dudas, si entre ella y tu hay un abismo,
Entre ella y tú yo elegí entre el infierno o el cielo,
poder ver la luz o ser ciego,
Poder respirar o ahogarme, poder ser yo mismo o nadie,
entre ella y tú, entre ella y tú, no vale la pena ni hablar del tema
tu amor ha quemado su huella prefiero ser tuyo que de ella,
do9+ mim mi-/do# remaj- sol/do sol*
entre ella y tú,
entre ella y tú quiero vivir de cara a la verdad y no de espaldas,
ahora se ganar y perder ahora se que quiero y a quién
por tu amor haré lo que haga falta,
entre ella y tú, entre ella y tú, no vale la pena ni hablar del tema
tu amor ha quemado su huella prefiero ser tuyo que de ella,
do+ do9+ do do/si lam la9 la7
entre ella y tú,
gracias a ti quiero vivir de cara a la verdad y no de espaldas,
ahora se ganar y perder ahora se que quiero y a quién; entre ella y tú,
gracias a ti ya sé quien soy y a donde voy ,ahora sé ganar y perder,
ahora se que quiero y a quién
entre ella y tú, entre ella y tú...




[Entre ella y tú chords][Entre ella y tú cifra]
© LaCuerda.net · aviso legal · privacidad · es · en · pt · contacto
DINAMICO