Acordes de Guitarra » N »Nicho Hinojosa » Ay Amor (Tab)

Ay Amor
Nicho Hinojosa

Letras, Acordes y Tabs para Guitarra, Bajo y Ukulele

  • G                      Em
    No sé por dónde comenzar
                      C
    Es muy difícil para mi
                Em            Am
    Como explicar, que ya acabó
                      D
    El sentimiento cambia
    G                        Em
    El tiempo no es un buen guardián
                             C
    Y la distancia no ayudó
          Em            Am
    Algo pasó, alguien llegó
                      D
    Y no tiene remedio…
    
    C      D      G      Em
    Ay amor, perdóname
    C            Am            C            D
    
  • G D/F# Em Em7 C Em7 D
    
    G              D/F#  Em
    No sé por dónde comenzar
             Em7/B      C
    Es muy difícil para mi
            Em7            Am7
    Como explicar, que ya acabó
          D
    El sentimiento cambia
    
    G                 D/F#     Em
    El tiempo no es un buen guardián
              Em7/B      C
    Y la distancia no ayudó
          Em7           Am7
    Algo pasó, alguien llegó
          D
    Y no tiene remedio
    
    
  • G           (G)    (F#) Em  
      no se por donde comenzar 
           Em7/D         C       
    es muy dificil para mi 
            C/B            Am7
    como explicar,que ya acabo
             D7
    el sentimiento cambia.
    
    
    
    G              D/F#       Em
      el tiempo no es un buen guardian
           Em7/B       C
    y la distancia no ayudo
    
    Em7          Am7
    algo paso,alguien llago 
         D7
    y no tiene remedio.
    
  •    G                                Em                     C
    e--------------------------------------------------------------------
    b--0--1--0--------0-----------0-----0--1--0-------0-----0--1--1------
    g--0--0--0-----0-----0-----0-----0--0--0--0----0-----0--0--0--0-----0
    d--------------------------------------------------------------------
    a----------------------------------------------------------------3---
    e--3--3--3--3-----------2-----------0--0--0--0-----------------------
    
    
                            D                    C
    e--------3----------------------------------------------3------------
    b--1-----------1-----0--1--3-----3-----3-------------------1------1--
    g-----0-----0-----0--0--0--2--2-----2-----2---------0----------0-----
    d--------------------------0--------------------2--------------------
    a--------------------------------------------3-----------------------
    e--------------------------------------------------------------------
    
    
    verso
    
    
  •       G              Em                   C                      D7              G
      \
    E  |----------------|-------------------|-8-------------------|----------------|---|
    B )|----------------|-7-----------------|---------------------|-5--------------|---|
    G  |--5-------------|-------------------|------10-------------|----------------|-5-|
    D  |--7-7-7---7---7-|-7-7-7---7---7-----|----9----9-----------|-7---7--7-7--7--|-7-|
    A )|--8-8-8--8---8--|-8-8-8--8---8--8-8-|-8-8------8-8-8-8-8--|-7--7-7-7-7--7--|-8-|
    E  |--7-8-7-----7---|-7-8-7-----7---7-8-|-8----------8-9-8-10-|-10-----8-10-10-|-7-|
      /
    
    INTRO (PARA REQUINTO)
    
    
      \   D               Bm                  G                 A7            D
    E  |----------------|-------------------|-3-----------------|-------------|---|
    B )|----------------|-2-----------------|-------------------|-0-----------|---|
    G  |--0-------------|-------------------|------5------------|-------------|-0-|
    D  |--2-2-2---2---2-|-2-2-2---2---2-----|----4---4----------|-2--2--2-2-2-|-2-|
    A )|--3-3-3--3---3--|-3-3-3--3---3--3-3-|-3-3-----3-3-3-3-3-|-2-2-2-2-2-2-|-3-|
    E  |--2-3-2-----2---|-2-3-2-----2---2-3-|-3---------3-4-3-5-|-5-----3-5-5-|-2-|
    
  • NESTOR ISRAEL RODRÍGUEZ SAUCEDO SAN LUIS POTOSI
    ESTA LETRA ESTA AL MISMO TONO QUE LA CANTA NICHO
    SINO COMPRUEBENLO...
    
    SOL LA SI  DO SI LASOLSI,  SOL LA   SIDOSI   LASI  SOL  SOLSOL
    NO  SE POR DONDE COMENZAR,  ES MUY  DIFÍCIL  PARA  MI,   COMO 
    
    RE   SOL  SOLSOL RE SI  SOL  SOLSOLSOLFA#   SOL LA  SOL  LA  SI
    EXPLICAR   ELLA  ACABO, EL   SENTIMIENTO    CAMBIA, EL   TIEMPO 
    
      DO   SI  LA  SOL  SI  SOL  LA  SI DO  SI  LA SISOL  SOLSOL
    NO ES  UN BUEN GUARDIÁN, Y   LA  DISTANCIA  NO AYUDO,  ALGO 
    
    RESOL  SOL SOL  RE SI SOL SOL  SOL SOL FA# SOL LA     
    PASO,  ALGUIEN  LLEGO  Y   NO   TIENE  REMEDIOOOO.
    
    SOL MI FA#   FA# RE MI SOL, SILA LALAFA# SI  LA   LAFA# MI  MIFA#MI  MI  FA#SOLLA
    HAY  AMOR      PERDÓNAME,   SOLO INTENTO NO HACER DAÑO SIN MENTIRAS  SIN ENGAÑOS.
     
    SOL   MI FA#    FA# RE MI SOL  MI   RE  RE  SI MI  RE  SISOL  LA
    HAAY   AMOR      ENTIÉNDEME    SE QUE ES DURO Y NO SE  LOGRA HACER.
    
    (SILENCIO POR UN TIEMPO).
    
    SOL  LA  SI  DO SI LA SOL  SI  SOL L
  • +
    ¡Colabora con nosotros!
    Envíanos tu versión de esta canción

Letra de Ay Amor
No sé por dónde comenzar
Es muy difícil para mi
Como explicar, que ya acabó
El sentimiento cambia
El tiempo no es un buen guardián
Y la distancia no ayudó
Algo pasó, alguien llegó
Y no tiene remedio…
Ay amor, perdóname
Sólo intento no hacer daño, sin mentiras, sin engaños
Ay amor, entiéndeme
Yo sé que es duro y no sé lo que hacer
Si quieres verme alguna vez
Tan sólo llama y volveré
Si tu dolor te deja ver
Quisiera ser tu amigo
Yo nunca te podré olvidar
Pero el amor es como es
A veces da, a veces no
Y no tiene remedio
Ay amor…




[Ay Amor chords][Ay Amor cifra]
© LaCuerda.net · aviso legal · privacidad · es · en · pt · contacto