Acordes de Guitarra » N »Nicho Hinojosa » A Veces (Tab)

A Veces
Nicho Hinojosa

Letras, Acordes y Tabs para Guitarra, Bajo y Ukulele

  • G  D Am7 D
    
    Verso:
                     G
    Porque a veces te pienso
                    D
    porque a veces te lloro
                     Am7
    porque a veces no encuentro las palabras
           D
    para decirte que eres todo
    
    esque estas en mi mente
    cada vez que respiro
    porque vida no me importa nada
    cuando no estas conmigo
    
    Coro:
    
       D                     G            C
    
  •                     G
    por que a veces te pienso
                        D
    por que a veces te lloro
                                C
    por que a veces no encuentro las palabras
             Am             D
    para decirte que eres todo
                        G
    es que estas en mi mente
                     D
    cada vez que respiro
                 C
    por que vida no me importa nada
             Am             D
    cuando no estas conmigo
               D                G      C
    quiero sentirte entre mis brazos, todavia
          D            G        C
    enamorarme mas de ti, hacerte mia
    
  • INTRO: G, Bm7, C, Am7, D7
    
    e--------3---------5--3--2--3-----3----
    B-0/1--3---3-3-0-1--------------0---0--
    G-----------------------------0-------0
    
    e--------3---2
    B-0--1--------
    G------0------
    D------------0
    A-0--0--------
    E-------------
                    G
    Que a veces te pienso
                  Bm7      (Bm7*)
    que a veces te lloro
                         C
    que a veces no encuentro las palabras
           Am7            D7
    para decirte que eres todo.
    
  •  G5    Bm7/F#  C9     Am7    D/F#  C9/B   D7/F#  
    E - 3  E - X  E - 3  E - 0  E - X  E - 0  E - 2 
    B - 3  B - 3  B - 3  B - 1  B - 3  B - 3  B - 1
    G - 0  G - 2  G - 0  G - 0  G - 2  G - 0  G - 2
    D - 0  D - 0  D - 2  D - 2  D - 0  D - X  D - 0
    A - 2  A - X  A - 3  A - 0  A - X  A - 2  A - X
    E - 3  E - 2  E - X  E - 0  E - 2  E - X  E - '
    
    
    INTRO
               G5       Bm7/F#       C              D7/F#
    e ------------3--------5--3-p-2--3----------------- 
    B --0-h-1--3-----3--3--3------------1--0-----0-----
    G ------------------2---------------------2-----2-- 
    D ---------------------4--------------------------- 
    A ------------------2------------3----------------- 
    E ---------3------------------------------------2-- 
    
               G5       Bm7/F#       C              D7/F#
    e ------------3--------5--3-p-2--3-----------------------| 
    
  • No estoy seguro de que sea el correcto, pero si el mas cercano 
    
    Intro:
    
    e|-7-8-10------15--10---10------17---15-14-15-----8----7-5-7--|
    B|-----------8--------8-------7-----------------8---8---------|
    G|---------7----------------7-----------------9---------------|
    
    e|----------7-8-10------15-10---10------17--15--15-14-15--|
    B|---8-10-------------8-------8-------7-------------------|
    G|-9------7---------7---------------7---------------------|
    
    e|-----------15--7-5-7------5--3---2-|
    B|---8-9-10---------------7------3---|
    G|-9--------------------7------------|
    
    
    Intermedio:
    
    e|-7-8-10-10------10-----7-8-10-10------7-8-17--7-8-10-10-8-8-7-8--7-8-10-8-7-5-|
    B|--------------8------8--------------8-----------------------------------------|
    G|------------7------7--------------7-------------------------------------------|
    
    
    Final:
    
    e|-----------3-7-10--15-|
    B|---------3---------12-|
    G|-------4-----------12-|
    D|-----5----------------|
    A|---5------------------|
    E|-3
  • e|----------------------------------------------------------------|
    B|----0-1-0-1-0-1-0-1-0h1p0p1p0p1------------------0-1------------|
    G|----------------------------------------------------------------|
    D|----------------------------------------------------------------|
    A|----------------------------------------------------------------|
    E|----------------------------------------------------------------|
    
    
         G               Bm7                  C/G          C           D
    e|-----------3-------------------5---5p3-------3-2-0----0----0-0-0--2-2-2-------------|
    B|---3-------3--3----3----------3-------------1------1--1----1-1-1--3-3-3------0-1----|
    G|---0-0---0----0----2-2---2---2---2---------0----------0----0-0-0--2-2-2-------------|
    D|-------0---------------4----4-------------2-----------2----2-2-2--0-0-0-------------|
    A|-------------------2---------------------3------------3----3-3-3--------------------|
    E|---3--------------------------------------------------------------------------------|
    
    
         G               Bm7                  C/G          C           D      C
    e|-----------3-------------------5---5p3-------3-2-0----0----0-0-0--2-2-2--0--------|
    B|---3-------3--3----3----------3-------------1------1--1----1-1-1--3-3-3---1-------|
    
  • +
    ¡Colabora con nosotros!
    Envíanos tu versión de esta canción

Letra de A Veces
Verso:
Porque a veces te pienso
porque a veces te lloro
porque a veces no encuentro las palabras
para decirte que eres todo
esque estas en mi mente
cada vez que respiro
porque vida no me importa nada
cuando no estas conmigo
quiero sentirte entre mis brazos todavia
enamorarme mas de ti , hacerte mia
como la primera vez
Verso:
porque a veces te pierdo
porque a veces te encuentro
escondida en la jungla de mis sueños
en mis noches de desvelo
porque eres mi locura
mi anciedad y mi pasion
porque no yo no entiendo
cuando grita el silencio
y el orgullo que frena nuestras manos
a la caricia del perdon
porque no existen reglas
ni el romance perfecto
porque la historia que vivimos
fue escrita por los dos
quiero sentirte entre mis brazos todavia
enamorarme mas de ti , hacerte mia
como la primera vez
quiero sentirte entre mis brazos todavia
enamorarme mas de ti , hacerte mia
como la primera vez
Verso:
porque a veces me ignoras
porque a veces me amas
porque el tiempo nos une cada dia
a pesar de la distancia
porque a veces me enfrentas
porque a veces me abrazas
porque llenas mi vida con tu risa
con tu voz y tu mirada
porque crees en mis locuras
y me entiendes sin hablar
te quiero...
ESPERO KE ESO KE ME DIJISTE AKELLA TARDE CAMBIE CON EL TIEMPO. TE AMO




[A Veces chords][A Veces cifra]
© LaCuerda.net · aviso legal · privacidad · es · en · pt · contacto