Acordes de Guitarra » M »Música Católica » El pescador (Tab)

El pescador
Música Católica

Letras, Acordes y Tabs para Guitarra, Bajo y Ukulele

  • RE           LA7                   RE
    Tu has venido a la orilla
                    SOL                                  LA7
    No has buscado, ni a sabios ni a ricos
                RE      LA7       RE    RE7
    Tan solo quieres que yo te siga.
    
    SOL
    SEÑOR ME HAS MIRADO A LOS OJOS, 
    SONRIENDO HAS DICHO MI NOMBRE, 
    EN LA ARENA HE DEJADO MI BARCA, 
    JUNTO A TI BUSCARE OTRO MAR.
    
    Tu sabes bien lo que tengo, 
    en mi barca no hay oro ni espada, 
    tan solo redes y mi trabajo.
    
    Tu necesitas mis manos, 
    mi cansancio que a todos descanse, 
    amor que quieras seguir amado.
    
  • INTRO: D A Bm F#m G D A
    
    D          A                       Bm
     'Pescador, Cristo te hizo pescador,
    F#m                        G
    indícanos donde encontrarlo
                 D                 A
    para ser con Él, felices como Tú'
    
     D
    Voy 
         A           Bm   F#m
    navegando sin timón
              G
    en mar abierto 
            D         A
    me abandona la razón.
    
           D       G
    Apenas y sobrevivo
    
  • e------0---3-2------------------------------------------------------
    b--3----------------0-----------------------------------------------
    g----------------------2--------------------------------4-4-4-2-----
    d--------------------------4/5--5--4--4/5/4--2----------------------
    a-------------------------------------------------------------------
    E-------------------------------------------------------------------
    
    e------0-2--3--2---2-2--3--0----------------------------------------
    b--3--------------------------------3----3--------------------------
    g------------------------------------------2-----2/4/2---2----------
    d-------------------------------------------------------------------
    a-------------------------------------------------------------------
    E-------------------------------------------------------------------
    
    
    D          A                       Bm
     'Pescador, Cristo te hizo pescador,
    F#m                        G
    indícanos donde encontrarlo
                 D                 A
    
  • e------5-4----------------------|----------|-----------------------
    b--5-7--------------------------|5-7-7>9-10|-----------------------
    g----------6-4-1>2-2-1-1>2-1----|----------|-----------------------
    d----------------------------4--|----------|-----------------------
    a-------------------------------|----------|-----------------------
    E-------------------------------|----------|-----------------------
    
    e-----------------------------------------------------------------
    b-10-12-12>14-15-14---14-14-15------------------------------------
    g------------------------------16-14-14---------------------------
    d---------------------------------------14-14>16-14---------------
    a-----------------------------------------------------------------
    E-----------------------------------------------------------------
    Pescador, Cristo te hizo pescador,indícanos donde encontrarlo
    para ser con Él, felices como Tú
    
    D
    Voy
         A           Bm   F#m
    navegando sin timón
    
  • +
    ¡Colabora con nosotros!
    Envíanos tu versión de esta canción

Letra de El pescador
Tu has venido a la orilla
No has buscado, ni a sabios ni a ricos
Tan solo quieres que yo te siga.
SEÑOR ME HAS MIRADO A LOS OJOS,
SONRIENDO HAS DICHO MI NOMBRE,
EN LA ARENA HE DEJADO MI BARCA,
JUNTO A TI BUSCARE OTRO MAR.
Tu sabes bien lo que tengo,
en mi barca no hay oro ni espada,
tan solo redes y mi trabajo.
Tu necesitas mis manos,
mi cansancio que a todos descanse,
amor que quieras seguir amado.
Tu, pescador de otros mares,
ansia eterna de almas que esperan,
amigo bueno que así me llama.




[El pescador chords][El pescador cifra]
© LaCuerda.net · aviso legal · privacidad · es · en · pt · contacto