Acordes de Guitarra » M »Música Católica » Bautízame Señor (Tab)

Bautízame Señor
Música Católica

  • Letra y Acordes
      Em                     B7
    BAUTIZAME SEÑOR CON TU ESPÍRITU
                            Em
    BAUTIZAME SEÑOR CON TU ESPIRITU
      Em                     B7
    BAUTIZAME SEÑOR CON TU ESPIRITU
                           Em  E7
    BAUTIZAME, BAUTIZAME SEÑOR
        Am               Em
    //Y DEJAME SENTIR, EL FUEGO DE TU AMOR
        B7          Em      E7
    AQUÍ EN MI CORAZÓN SEÑOR //(2)
    
    SANAME SEÑOR...
    RENUÉVAME SEÑOR...
    LLENAME SEÑOR...
  • Tablatura
    LA saqué A oído...
    
    e|---1-1-1-3-4-3-1-3-0-------3-3-3-4-6-4-3-8-4-1--
    B|-1-------------------1---1----------------------
    G|------------------------------------------------  x2
    D|------------------------------------------------
    A|------------------------------------------------
    E|------------------------------------------------
    
    e|-7-8-7-5-7-8--5-7-5-3-5-7---
    B|----------------------------
    G|----------------------------
    D|----------------------------
    A|----------------------------
    E|----------------------------
    
    e|-3-5-3-2-3-5--8-7----
    B|---------------------
    G|---------------------
    D|---------------------
    
  • +
    ¡Colabora con nosotros!
    Envíanos tu versión de esta canción

Letra de Bautízame Señor
BAUTIZAME SEÑOR CON TU ESPÍRITU
BAUTIZAME SEÑOR CON TU ESPIRITU
BAUTIZAME SEÑOR CON TU ESPIRITU
BAUTIZAME, BAUTIZAME SEÑOR
//Y DEJAME SENTIR, EL FUEGO DE TU AMOR
AQUÍ EN MI CORAZÓN SEÑOR //(2)
SANAME SEÑOR...
RENUÉVAME SEÑOR...
LLENAME SEÑOR...



© LaCuerda.net · aviso legal · privacidad · contacto