Acordes de Guitarra » M »Música Católica » Alabare (Tab)

Alabare
Música Católica

Letras, Acordes y Tabs para Guitarra, Bajo y Ukulele

  • MI                   DO#m
    ALABARE, ALABARE, ALABARE, ALABARE,
    FA#m      SI7         MI
    ALABARE A MI SEÑOR
    
    MI
    Todos unidos alegres cantamos Glorias
    SI7
    y alabanzas al Señor, Gloria al Padre, Gloria al hijo
    MI
    Y Gloria al Espíritu de amor 
    
    Juan vio el número de los redimidos 
    y todos alababan al Señor, unos cantaban otros oraban 
    y todos alababan al Señor.
    
    Somos Tus hijos Dios Padre eterno 
    Tu nos has creado con amor. Te bendecimos, te adoramos, 
    Y todos te alabamos con amor.
  • miren a ver si lo pueden mejorar
    
    coro x2
    
       ALABARE    ALABARE
    e|-------1----1-1-1-1---
    B|-1-3-1----------------
    G|----------------------
    D|----------------------
    A|----------------------
    E|----------------------
    
       ALABARE   ALABARE
    e|-1-3-1-5---5-5-5-5----
    B|----------------------
    G|----------------------
    D|----------------------
    A|----------------------
    E|----------------------
    
         ALABARE A MI SEÑOR
    e|-5-3--3-5-3--1-0-1--5-1----
    B|---------------------------
    G|---------------------------
    D|---------------------------
    A|---------------------------
    E|---------------------------
    
    verso I
    
    Juan vio el número de los redimidos
    e|-1-1-1-1-1--1-1-1-1-1-1---
    B|--------------------------
    G|--------------------------
    D|--------------------------
    A|--------------------------
    E|--------------------------
    
    y todos alababan al Señor
    e|---1-1-1-1-3-1-0-1-3---
    B|-1---------------------
    G|-----------------------
    D|-----------------------
    A|-----------------------
    E|-----------------------
    
    u
  • +
    ¡Colabora con nosotros!
    Envíanos tu versión de esta canción

Letra de Alabare
ALABARE, ALABARE, ALABARE, ALABARE,
ALABARE A MI SEÑOR
Todos unidos alegres cantamos Glorias
y alabanzas al Señor, Gloria al Padre, Gloria al hijo
Y Gloria al Espíritu de amor
Juan vio el número de los redimidos
y todos alababan al Señor, unos cantaban otros oraban
y todos alababan al Señor.
Somos Tus hijos Dios Padre eterno
Tu nos has creado con amor. Te bendecimos, te adoramos,
Y todos te alabamos con amor.




[Alabare chords][Alabare cifra]
© LaCuerda.net · aviso legal · privacidad · es · en · pt · contacto
DINAMICO