Acordes de Guitarra » M »Música Católica » A Edificar La Iglesia (Tab)

A Edificar La Iglesia
Música Católica

Letras, Notas, Punteos, Tablaturas y Acordes de Guitarra (Tabs & Chords)

  • Letra y Acordes
    MI                             FA#m    SI7
    A edificar la iglesia (3) del señor
    
    FA#m             SI7
    Hermano ven ayúdame
    
    FA#m             SI7
    Hermana ven ayúdame,
    
    FA#m                      SI7    MI
    A edificar la Iglesia del Señor.
    
     
    
    Yo soy la Iglesia, tú eres la Iglesia,
    
    Somos la Iglesia del señor...
    
    Los pobres... los ricos.
    
    
  • Tablatura
    A edificar LA iglesia
    e|-----3-3-3-1-0-----
    B|---1-----------1---
    G|-------------------  x2
    D|-------------------
    A|-------------------
    E|-------------------
    
     A edificar la iglesia del señor
    e|---3-3-3--3-5-3--1-0-1----
    B|-1------------------------
    G|--------------------------
    D|--------------------------
    A|--------------------------
    E|--------------------------
    
    Hermano ven ayúdame Hermana ven ayúdame
    e|---1-1-1-0-----------1-1-1-0---------
    B|-1---------3-3-3---1---------3-3-3---
    G|-------------------------------------
    
  • +
    ¡Colabora con nosotros!
    Envíanos tu versión de esta canción

Letra de A Edificar La Iglesia
A edificar la iglesia (3) del señor
Hermano ven ayúdame
Hermana ven ayúdame,
A edificar la Iglesia del Señor.

Yo soy la Iglesia, tú eres la Iglesia,
Somos la Iglesia del señor...
Los pobres... los ricos.
Los vivos... los muertos.
Los buenos... los malos.
San Pedro... San Pablo.
María... los Santos.
Los negros... los blancos.



© LaCuerda.net · Aviso Legal · Privacidad