Acordes de Guitarra » M »Motel » Y te vas (Tab)

Y te vas
Motel

Letras, Acordes y Tabs para Guitarra, Bajo y Ukulele

  • intro:Gm,D# x 2
    
    A#
    Y te vas,
       F             Cm
    deslizando en la oportunidad,
               D#
    para escapar
    
    Gm
    A veces siento que la vida
                   D#
    es una cosa que nos deja
    
    nos aleja nos refleja
    
    y nos alienta sin mas
    
    Gm
    hay tantas veces que
    
  • Gm, D#
    (PARA ACOMPAÑAR EL INTRO VA UN BAJEO)
    
          A#
    Y te vas,
          F                Cm
    deslizando en la oportunidad,
             D#
    para escapar
    
    F5-G5
         A veces siento que la vida
                        D#
    es una cosa que nos deja
    
    nos aleja nos refleja
                       Gm
    y nos alienta sin mas
    
    
    
  • Intro  F#m  D   (2)
    
          A
    Y te vas,
          E                Bm
    deslizando en la oportunidad,
              D
    para escapar.
    
    F#m
    A veces siento que la vida
                   D
    es una cosa que nos deja
    
    nos aleja nos refleja y nos alienta sin más.
    
    Hay tantas veces que
    quisiera protegerte y de repente,
    simplemente lentamente, volteas.
    
    
  • RIFF A
    
    E-3-3---1-3-----3----|-3-3---1-3-----3-----|
    A-------------1-----1|--------------1---1--|   GUITARRA 1
    D--------------------|---------------------|  estor lo haces varia
    G--------------------|---------------------|   veces
    B--------------------|---------------------|
    E--------------------|---------------------||
    
    LUEGO ENTRA LA SEGUNDA GUITARRA Y ACOMPAÑA
    EN Gm CON QUINTA WE O SEA NOMAS TOCAS LAS CUERDAS
    DE ARRIBA Y LA PRIMERA GUITARRA TOCA LO DE ARRIBA
    NOTA.- EL TAB DEL ACOMPAÑAMIENTO DE ABAJO LO HACE BILLI
    Y EL RIFF LO HACE RODRIGO QUE COSAS NO SI CHECA UN VIDEO EN
    VIVO.
    
    E----------------------|
    A---10-10-10-10-10-10--|       GUITARRA 2
    D---12-12-12-12-12-12--| OJO ESTO LO HACES VARIAS
    G---12-12-12-12-12-12--| VECES
    
  • E-3-3---1-3-----3----|-3-3---1-3-----3-----|
    A-------------1-----1|--------------1---1--|
    D--------------------|---------------------|X4
    G--------------------|---------------------|
    B--------------------|---------------------|
    E--------------------|---------------------|
    
                             >> van las dos guitarras cae al coro..
    E------------|           E-----------------------|
    A---10-10-10-|           A---6-6-6-6-6-6-6-6-6---|
    D---12-12-12-|           D---8-8-8-8-8-8-8-8-8---|
    G---12-12-12-|           G---8-8-8-8-8-8-8-8-8---|
    B------------|           B-----------------------|
    E------------|           E-----------------------|
    
    CORO:
    
    A#             F        Cm    D#
    E-6-6-6-6-|-1-1-1-1-|---------|---|
    A-8-8-8-8-|-3-3-3-3-|-3-3-3-3-|-6-|
    
  • +
    ¡Colabora con nosotros!
    Envíanos tu versión de esta canción

Letra de Y te vas
Y te vas,
deslizando en la oportunidad,
para escapar
A veces siento que la vida
es una cosa que nos deja
nos aleja nos refleja
y nos alienta sin mas
hay tantas veces que
quisiera protegerte
y de repente
simplemente lentamente volteas
y te vas
deslizando en la oportunidad
de dividir al tiempo para
escapar, la distancia
es una eternidad y no te
puedes detener a esperar
puedo decirte tantas cosas que
quisiera me dijeras
me pidieras me pudieras
prometer algo mas
pero el silencio de mis labios
es el precio que te debo
pues te quiero y
no te quiero dejarte
y te vas
deslizando en la oportunidad
de dividir al tiempo para
escapar, la distancia
es una eternidad y no te
puedes detener a esperar
para esperar
entiendo que todo sucedió
a veces no creo en el adiós
pudiera decirte
que me voy
pudiera decirte
a donde voy y hoy
y te vas
deslizando en la oportunidad
de dividir al tiempo para
escapar, la distancia
es una eternidad y no te
puedes detener a esperar
déjame llevarte una
vez mas y
desde lejos junto a ti
caminar la distancia es una
y nada mas
y para siempre
yo te voy a esperar.




[Y te vas chords][Y te vas cifra]
© LaCuerda.net · aviso legal · privacidad · es · en · pt · contacto