Acordes de Guitarra » M »Motel » Dime Ven (Tab)

Dime Ven
Motel

Letras, Acordes y Tabs para Guitarra, Bajo y Ukulele

  • e|------------------------------||
    B|---1-1-1-0-0-0---1-1-1-0-0----||
    G|---------------0-----------0--||
    D|------------------------------||
    A|------------------------------||
    E|------------------------------||
    
    e|------------------------------||
    B|---1-1-1-0-0-0---1-1-1-0-0----||
    G|------------------------------||
    D|---------------2-----------2--||
    A|------------------------------||
    E|------------------------------||
    
    
    e|-------------------------------||
    B|---1-1-1-0-0-0-1-3-3-3-1-1-0-1-||
    G|-------------------------------||
    D|-------------------------------||
    A|-------------------------------||
    
  • C-Am-F-G
    
    
    C                   Am
    Siento que me tocas sin ver
                         F
    que te apareces detrás de la pared
     Fm
    detrás de mis recuerdos
    
       C                  Am
    Y siento las caricias de ayer
                           F
    de aquellos labios que busco sin saber
      Fm
    te quiero ver por dentro
    
    
      Dm                  C
    Y entre las llamadas busque
    
  • e-----|-----|-----|
    B-----|-----|-----|
    G-----|-----|-----|
    D-----|-----|-----|
    A-----|--X--|-----|
    E-----|-----|-----|
    
    C/G                Em7
    Siento que me tocas sin ver que te apareces
    Am                       Fm
    detrás de la pared, detrás de mis recuerdos.
    C/G                            Em7
    Y siento las caricias de ayer, aquellos labios
         Am
    que busco sin seder,
        Fm
    te quiero ver por dentro.
    
    Dm                      Em7
    y entre las llamadas busqué
    
  • [C, Cmaj7, C, Cmaj7, Fmaj7, Am, Esus4, Am, Esus4, F]
    
    
    [Guitarra 2||Electrica]
    E-|-----------------------------------------------------------------
    B-|-----------------------------------------------------------------
    G-|5-5-5-4-4-4------5-5-5-4-4-4----5-5-5-4-4-4------5-5-5-4-4-4-----
    D-|-----------5-5-5------------5-5------------5-5-5------------5-5--
    
    E-|-----------------------------------------------------------------
    B-|-----------------------------------------------------------------
    G-|5-5-5-4-4-4------5-5-5-4-4-4----5-5-5-4-4-4-5-5-5-7-7-7-5-5-4-4-5
    D-|-----------------------------------------------------------------
    A-|-----------7-7-7------------7-7----------------------------------
    E-|-----------------------------------------------------------------
    
    
    [Bajo]
    
    G-|-----------------------------------------------------------------
    
  • e|--------------------------------------------------------------------|
    B|--1-1-1--0-0-0---------1-1-1--0-0-0---------------------------------|
    G|----------------0-0-0----------------0-0----------------------------|
    D|--------------------------------------------------------------------|(X2)
    A|--------------------------------------------------------------------|
    E|--------------------------------------------------------------------|
    
    e|--------------------------------------------------------------------|
    B|--1-1-1--0-0-0---------1-1-1--0-0-0---------------------------------|
    G|-------------------------------------0-0----------------------------|
    D|----------------2-2-2-----------------------------------------------|
    A|--------------------------------------------------------------------|
    E|--------------------------------------------------------------------|
    
    
    e|--------------------------------------------------------------------|
    B|--1-1-1--0-0-0--1-1-1-1-/s-3-3-3--1-1-0-----------------------------|
    G|--------------------------------------------------------------------|
    D|--------------------------------------------------------------------|
    A|--------------------------------------------------------------------|
    
  • * Esta también es una corrección un poco más detallada que la anterior,
     espero les guste...saludos !
    
    
    Intro
    
    G------------------------------------
    D-------------------77777777---------
    A—33333333—88888888----------88888888
    E------------------------------------
    
    Verso
    
    G-------------------------------------------
    D-------------------------------------------
    A--3-3-----------------3-3—357-7----88-8-7/5
    E------0-0--235-5--1-1-----------55---------
    
    Inicio de coro
    
    G----------------------------------------------------------
    D----------------------------------------------------------
    A-5-55-55-5555--7-77-77-7777--8-88-88-8888--10-101010/-----
    E-----------------------------------------------------33333
    
    Coro
    
    G------------------------------------------------------------------
    D------------------------------------------------------------------
    A-333333----------------8-8-8--10-10-10--11-11-11--10-10-10--8-8-10 X2
    E--------5555555-111111--------------------------------------------
    
    Sol
  • *(Esta es una correcion pero solamente para invertir la tablatura
      el unico error que tenia es que la habia puesto al reves)
    Intro
    
    G---------------------------------------
    D---------------------------------------
    A--33333333-------------------88888888--
    E-----------55555555-11111111-----------
    
    
    Verso
    
    G-------------------------------------------
    D-------------------------------------------
    A--3-3-------------------3-3--57-7------88--
    E-------0-0--235-5--1-1-------------55------
    
    Inicio del coro
    
    G------------------------------------------
    D------------------------------------------
    A--5-55-5--7-77-7-8-88-8-10-101010---------
    E---------------------------------33333----
    
    Coro
    
    G---------------------------------------------------------------------
    D--------------------------------------------------------------------- X 2
    A-333333-------------------8-8-8--10-10-10--11-11-11--10-10-10--8-8-8-
    E---------5555555-111111----------------------------------------------
    
    Solo o arpegio (es igual
  •   C                        Em
    sien-to que me to-cas sin ver
    sol-mi  sol mi sol-do si  sol
    
    
    que te apa-re-ces
    mi sol mi-sol-do
    
        Am
    de-tras de la pa-red
    sol-sol fa mi fa-re
    
         Fm
    de-tras de mis re-cuer-dos
    re-sol  fa mi   fa-mi-re
    
    
       C                          Em
    y  sien-to las ca-ri-cias de ayer
    mi sol-mi  sol mi-sol-do  si sol
    
    
    a-que-llos la-bios
    mi-sol-mi  sol-do
    
        Am
    que bus-co sin ce-der
    sol sol-fa mi  fa-re
    
        Fm
    te quie-ro ver por den-tro
    re sol-fa  mi  fa   mi-re
    
    
    Dm
    y entre las lla-ma-das bus-que
    do la   do   la-do-mi    mi-do
    
    Em
    un men-sa-je  ocul-to en-con-tre
    do la-do-la    do-mi  mi  fa-mi-do
    
    F          G
    y es que quie-ro sa-ber
    do   do   mi-re  re-fa-sol-mi-re
    
    
     C
    Di-me que me crees
    mi-mi mi  mi  re
    
    di-me que me cre-es
    re-do  re do  mi-re
    
    Am
    Di-me que sien-tes
    mi-mi  mi   mi-mi
    
    
    cuan-do me ves
     mi-sol mi re-do
    
             F
    o  cuan-do me voy
    do  mi-fa  mi re
    
    
    cuan-do no estoy
     mi-fa  mi  re
    
    F
    Di-me ven ven
    mi-mi  mi mi
    
    
    di-me ven ven di-me
    mi-mi  mi 
  • +
    ¡Colabora con nosotros!
    Envíanos tu versión de esta canción

Letra de Dime Ven
Siento que me tocas sin ver
que te apareces detrás de la pared
detrás de mis recuerdos
Y siento las caricias de ayer
de aquellos labios que busco sin saber
te quiero ver por dentro
Y entre las llamadas busque
un mensaje oculto encontré
y es que quiero saber
Dime que me crees dime que me crees
dime que sientes cuando me ves
o cuando me voy cuando no estoy
dime ven ven dime ven ven dime
Dime otra vez nunca te olvide
dime que quieres volverme a ver
y sin importar lo que vendrá
dime ven ven dime ven ven dime
Cada espacio cada lugar
cada palabra inmortal que has repetido
grabo en mi cuerpo tu sonido
Y cada vez que quiero soñar
de lo que nos traerá el destino
Busco en las palabras la fe
las caricias que desde ayer
porque quiero saber
Dime que me crees dime que me crees
dime que sientes cuando me ves
o cuando me voy cuando no estoy
dime ven ven dime ven ven dime
Dime otra vez nunca te olvide
dime que quieres volverme a ver
sin importar lo que vendrá
dime ven ven dime ven ven dime.
cualquier comentario haganmelo saber porfavor




[Dime Ven chords][Dime Ven cifra]
© LaCuerda.net · aviso legal · privacidad · es · en · pt · contacto