Letra y Acordes de Motel: Dime Ven
Conexión · Inscripción
Letras y Acordes
Pantalla Completa
Imprimir
Versión Texto
Añadir Favorito
Otras Versiones

Mostrar Diagramas
Desfile Automático
Manipular Acordes
Formato del Texto


Dime Ven

Motel

calidad:
motl0011
AUTOR: Motel  corregir
ALBUM: desconocido
Enviado por luis
Esta rola esta muy buena tiene notas de la primera y segunda guitarra
 para que la voz se acople más fácil.

(intro)
      2 veces
e|------------------------------||
B|---1-1-1-0-0-0---1-1-1-0-0----||
G|---------------0-----------0--||
D|------------------------------||
A|------------------------------||
E|------------------------------||

e|------------------------------||
B|---1-1-1-0-0-0---1-1-1-0-0----||
G|------------------------------||
D|---------------2-----------2--||
A|------------------------------||
E|------------------------------||


e|-------------------------------||
B|---1-1-1-0-0-0-1-3-3-3-1-1-0-1-||
G|-------------------------------||
D|-------------------------------||
A|-------------------------------||
E|-------------------------------||


C Em Siento que me tocas sin ver
Am que te apareces detrás de la pared
F detrás de mis recuerdos
C Em Y siento las caricias de ayer
Am de aquellos labios que busco sin saber
F te quiero ver por dentro
Dm Em Y entre las llamadas busque
F un mensaje oculto encontré
G F y es que quiero saber
C Dime que me crees dime que me crees
Am dime que sientes cuando me ves
F o cuando me voy cuando no estoy
G dime ven ven dime ven ven dime
C Dime otra vez nunca te olvide
Am dime que quieres volverme a ver
F y sin importar lo que vendrá
G dime ven ven dime ven ven dime (intro)
C Em Cada espacio cada lugar
Am cada palabra inmortal que has repetido
F grabo en mi cuerpo tu sonido
C Em Y cada vez que quiero soñar
Am solo hace falta pensar en el inicio
G F de lo que nos traerá el destino
Dm Em Busco en las palabras la fe
F las caricias que desde ayer
G F porque quiero saber
C Dime que me crees dime que me crees
Am dime que sientes cuando me ves
F o cuando me voy cuando no estoy
G dime ven ven dime ven ven dime
C Dime otra vez nunca te olvide
Am dime que quieres volverme a ver
F sin importar lo que vendrá
G dime ven ven dime ven ven dime. cualquier comentario haganmelo saber porfavor
Este fichero es trabajo propio de su transcriptor y representa su interpretación personal de la canción. El material contenido en esta página es
para exclusivo uso privado, por lo que se prohibe su reproducción o retransmisión, así como su uso para fines comerciales.

© LaCuerda.net · Aviso Legal · Privacidad