Tablatura para Bajo de Molotov: Frijolero
Conexión · Inscripción
Letras y Acordes
Pantalla Completa
Imprimir
Versión Texto
Añadir Favorito
Otras Versiones

Mostrar Diagramas
Desfile Automático
Formato del Texto


Frijolero(BAJ)

Molotov

calidad:
molo0281
AUTOR: Ayala, Randy Ebright, Huidobro
ALBUM: Dance and Dense Denso (2003)
Enviado por mauricio
Intro
E|------------|-----------|
A|--77--------|------8-7--|
D|-----5-7-77-|-77-5------|
G|------------|-----------|

E|----5------|----------|---7-|-5---5---|-5-5---5-|
A|--5---5----|---7---57-|-7---|---7---7-|-----7---|
D|--------57-|-7---7----|-----|---------|---------|
G|-----------|----------|-----|---------|---------|

E|------------|-5---------|---7---7-|
A|--5---------|---7---757-|-7---7---|
D|----7---757-|-----7-----|---------|
G|------7-----|-----------|---------|

------------------|---5---5--|
-7----------------|--7-7-7---|
---7h9-------10-9-|-7---7----|
-------7h9-7------|----------|


Yo ya estoy
E|--5-----|---------------|---5-------|-----5------|
A|----7---|-5-7--5-7--575-|-5---5-----|---7---575--|
D|------7-|---------------|-------757-|-7----------|
G|--------|---------------|-----------|------------|

Y aunque
E|------5-|---------------|---5-------|-----5------|
A|----7---|-5-7--5-7--575-|-5---5-----|---7---575--|
D|--7-----|---------------|-------757-|-7----------|
G|--------|---------------|-----------|------------|

te pagamos
E|------5-|---------------|-----------|-----5------|
A|----7---|-5-7--5-7--575-|-5---------|---7---575--|
D|--7-----|---------------|---7---757-|-7----------|
G|--------|---------------|-----7-----|------------|

a que nos
E|------5-|---------------|-----------|-----5--|
A|----7---|-5-7--5-7--575-|-5---------|---7----|
D|--7-----|---------------|---7---757-|-7------|
G|--------|---------------|-----7-----|--------|

Coro
E|------------|-5---------|---7-------|-----|----------|
A|--5---------|---7---757-|-7---7-----|---7-|-----8-7--|
D|----7---757-|-----7-----|-------757-|-7---|-7-5------|
G|------7-----|-----------|-----------|-----|----------|

E|------------|-5---------|---7-0-7-0-7-|---5---5---|
A|--5---------|---7---757-|-7-----------|--7-7-7-7--|
D|----7---757-|-----7-----|-------------|-7---7-----|
G|------7-----|-----------|-------------|-----------|

NOw
E|------|--|---7-|--|---5-|--------5----|
A|----7-|--|-7---|--|-5---|-7----7---7--|
D|--7---|--|-----|--|-----|---77--------|
G|------|--|-----|--|-----|-------------|

podras
E|------5-|---------------|-----------|-----5------|
A|----7---|-5-7--5-7--575-|-5---------|---7---575--|
D|--7-----|---------------|---7---757-|-7----------|
G|--------|---------------|-----7-----|------------|

E|------5-|---------------|-----------|----------|
A|----7---|-5-7--5-7--575-|-5---------|---7---7--|
D|--7-----|---------------|---7---757-|-7---7----|
G|--------|---------------|-----7-----|----------|

E|------5-|---------------|-----------|-----5--|-----|
A|----7---|-5-7--5-7--575-|-5---------|---7----|-7-7-|
D|--7-----|---------------|---7---757-|-7------|--7--|
G|--------|---------------|-----7-----|--------|-----|

Coro
E|------------|-5---------|---7-------|-----|-----------|
A|--5---------|---7---757-|-7---7-----|---7-|------8-7--|
D|----7---757-|-----7-----|-------757-|-7---|-77-5------|
G|------7-----|-----------|-----------|-----|-----------|

E|------------|-5---------|---7-0-7-0-7-|---5---5--|
A|--5---------|---7---757-|-7-----------|--7-7-7---|
D|----7---757-|-----7-----|-------------|-7---7----|
G|------7-----|-----------|-------------|----------|

Intro
E|------------|-----------|
A|--77--------|------8-7--|
D|-----5-7-77-|-77-5------|
G|------------|-----------|

E|----5------|----------|---7-|-5----|-----5-----|
A|--5---5----|---7---57-|-7---|------|---7---575-|
D|--------57-|-7---7----|-----|---57-|-7---------|
G|-----------|----------|-----|------|-----------|

E|------------|-5---------|---7---7---7---|
A|--5---------|---7---757-|-7---7---7---7-|
D|----7---757-|-----7-----|---------------|
G|------7-----|-----------|---------------|

Intro
E|------------|-----------|
A|--77--------|------8-7--|
D|-----5-7-77-|-77-5------|
G|------------|-----------|

Coro
E|------------|-5---------|---7-------|-----|----------|
A|--5---------|---7---757-|-7---7-----|---7-|-----8-7--|
D|----7---757-|-----7-----|-------757-|-7---|-7-5------|
G|------7-----|-----------|-----------|-----|----------|

E|------------|-5---------|---7---7---7---7-|-5---5--|
A|--5---------|---7---757-|-7---7---7---7---|---5----|
D|----7---757-|-----7-----|-----------------|--------|
G|------7-----|-----------|-----------------|--------|

atte miauricio
Este fichero es trabajo propio de su transcriptor y representa su interpretación personal de la canción. El material contenido en esta página es
para exclusivo uso privado, por lo que se prohibe su reproducción o retransmisión, así como su uso para fines comerciales.

© LaCuerda.net · Aviso Legal · Privacidad