Acordes de Guitarra » M »Molotov » Changuich a la chichona (Tab)

Changuich a la chichona
Molotov

Letras, Acordes y Tabs para Guitarra, Bajo y Ukulele

  • Transcrita por: Erick 'Scan' Espinosa
    Mail: scan55@hotmail.com
    
    Esta rola esta facil, en los versos no lleva guitarra. Tiene un bajo medio
    sintetizado pero dudo que sea guitarra. Si me quedo mal, corrijanla y mandenme
    un mail para saber.
    
    1er. Coro
    e-------------------------
    b-------------------------
    g-------------------------
    d-------------------------
    a-------------------------
    E-------------------------
    
    2do. Coro
    
    e------------------------------
    b------------------------------
    g------------------------------
    d-2------5------9------12------  x2
    a-2-x16--5-x16--9-x16--12-x16--
    E-0------3------7------10------
    
    3er. Coro
    
    e------------------------------
    b------------------------------
    g------------------------------
    d-2------5------9------12------
    a-2-x16--5-x16--9-x16--12-x16--
    E-0------3------7------10------
    
    e---------------------------------------------------------
    b---------------------------------------------------------
    g----------------------
  • BUENO ANTES QUE NADA ARRIBA TIJUANA
    
    AQUI LES VA SIN SALIVA HAY DOS BAJOS NORMAL Y SINTETISADO
    
    HAY ESTA EL SINTETISADO
    
    G-------
    D-------
    A-------
    E-------
    B-5-5-5-
    
    BUENO LEGO SE VIENE UN CORO
    
    Y ESTE ENTRA HASTA QUE DICE
    NO COMER MAS KENTUKY CHUKY ON PINCHO A LA ESPAñOLA
    
    G-0-0--0-----0--0--
    D------------------
    A------------------
    E------------------
    
    BUENO LEGO SE VIENE UN CORO SOLO LA PILA TOCA HAY
    
    DESPUES VERSO DE RANDY
    NOW IF YOURE HUNGRY FOR SOME BOLOGNA
    
    G-0-0--0-----0--0--
    D------------------
    A------------------
    E------------------
    
    VERSO RANDY CONTINUACION HAY POR EL SEG 1:16
    DICE I GOT SOME HOT
    
    G-0-0-0-----0--3--
    D-----------------
    A-----------------
    E-----------------
    
    Y LOS COROS SON ASI
    
    G-0(X16)-3(X16)-7(X16)-10(X16)
    
    ESPERO QUE EN LOS COROS LE ENTIENDAN JEJE
    
    BUENO SE LOS VOY A PONER DE OTRA FORMA
    
    G-0000000000000000-CONTINUA CON LO DE ABAJO EN LA MISMA CUERDA
    G-3333333333333333
    G-7777777777777777
    G-10101010101010101010101010101010
    
    EL MOTIVO POR EL QUE LO ESCRIBO A
  • Hola amigos molotoveros aca les dejo esta cancion muy facil de
    tocarla,espero q les guste y si les queda alguna duda escriban
    a vito_molotov@hotmail.com
    
    Changuich a la chichona
    
    Verso 1 (Miky) (Empieza a los 0:35)
    G|---------------|
    D|---------------|
    A|---------------|    X4
    E|-0---00----00--|
    
    Coro 1(Nada)
    
    Verso 2 (Randy)
    
    G|---------------|
    D|---------------|
    A|---------------|    X4
    E|-0----00---00--|
    
    
    G|---------------|
    D|---------------|
    A|---------------|     x6
    E|-0----00---003-|
    
    Coro 2 (x2)
    G|------------------------------|
    D|------------------------------|
    A|---------------2(x10)-5(x10)--|
    E|-0(x10)-3(x10)----------------|
    
    Verso 3 (Miky)
    
    G|---------------|
    D|---------------|
    A|---------------|     x6
    E|-0----00---003-|
    
    Despues el bajo creo q utiliza un pedal pero no se de que,
    y hace lo mismo hasta el coro
    
    Coro 2 (x3)
    G|------------------------------|
    D|------------------------------|
    A|---------------2(x10)-5(x10)--|
    E|-0(x10)-3(x10)----------------|
    
    G|---|
    D|---|
    A
  • +
    ¡Colabora con nosotros!
    Envíanos tu versión de esta canción






[Changuich a la chichona chords][Changuich a la chichona cifra]
© LaCuerda.net · aviso legal · privacidad · es · en · pt · contacto