Acordes de Guitarra » M »Molotov » E Charles White (Tab)

E Charles White
Molotov

Letras, Acordes y Tabs para Guitarra, Bajo y Ukulele

  • Intro/verso							
    e-|------------------------------------------|
    B-|*----0-----------3-----------6-----------*|
    G-|-----0-----------4-----------7--7-7-------|
    D-|---2-2---------5-5---------8-8--8-8-------|
    A-|*--2-----------5-----------8----8-8------*|
    E-|---0---------3-3-----------6-6--6-6-------|
    					   x8
    
    coro
    e-|------------------------------------------|
    B-|*-----------------------------------------|
    G-|--3-3--x-x-x-x--7-7-x-x-x-x---------------|
    D-|--3-3--x-x-x-x--7-7-x-x-x-x--2-2----------|
    A-|*-1-1--x-x-x-x--5-5-x-x-x-x--2-2----------|
    E-|--------------------x-x-x-x--0-0----------|
    
    e-|------------------------------------------|
    B-|-----------------------------------------*|
    G-|------------------------------------------|
    D-|------------------------------------------|
    A-|--2-2-2-3-3-3-4-4-4----------------------*|
    E-|------------------------------------------|
    				 	   x3
    
    
    e-|------------------------------------------|
    B-|--------------------------
  • +
    ¡Colabora con nosotros!
    Envíanos tu versión de esta canción






[E Charles White chords][E Charles White cifra]
© LaCuerda.net · aviso legal · privacidad · es · en · pt · contacto
DINAMICO