Acordes de Guitarra » M »Molotov » Blame Me (Tab)

Blame Me
Molotov

Letras, Acordes y Tabs para Guitarra, Bajo y Ukulele

  • |-----------------------------------------------
    |-----------------------------------------------
    |-----------------------------------------------
    |-----------------------------------------------
    |----------------------5------------------------
    |--7-7-5-7-7-5-7-7-5-7---7-5-7-7-5-7-7-5-2-2-4-4
    
    |-----------------------------------------------
    |-----------------------------------------------
    |-----------------------------------------------
    |-----------------------------------------------
    |----------------------5------------------------
    |--7-7-5-7-7-5-7-7-5-7---7-5-7-7-5-7-7-5-3-3-5-5
    
    |-------------------------------------------------------------
    |-------------------------------------------------------------
    |-7-7--7/4-4-4--4--------4-4---7-7--7/4-4-4--4--------7-7-5-5-
    |-7-7--7/4-4-4--4-5-5--5-4-4---7-7--7/4-4-4--4-5-5--5-7-7-5-5-
    |-5-5--5/2-2-2--2-5-5--5-2-2---5-5--5/2-2-2--2-5-5--5-5-5-3-3-
    |-----------------3-3--3-----------------------3-3--3---------
    
    You really wanna know but nothi
  • Antes ke nada, kiero mandar un saludo a toda la banda rockera
    ke gusta de molotov y de toda la buena música...
    
    En primera tenemos el intro y verso de la canción
    y este se puede tocar de 3 formas distintas:
    
    1° Forma:
    
    e|------------------------------------------------------------------|
    b|------------------------------------------------------------------|
    g|------------------------------------------------------------------|
    d|------------------------------------------------------------------|
    a|---------------------5--------------------------------------------|
    E|-7-7-5-7-7-5-7-7-5-7---7-5-7--------------------------------------|
    
    2° Forma:
    
    e|------------------------------------------------------------------|
    b|------------------------------------------------------------------|
    g|------------------------------------------------------------------|
    d|------------------------------------------------------------------|
    a|-2-2-0-2-2-0-2-2-0-2-5-2-0-2-----------------------------------
  • +
    ¡Colabora con nosotros!
    Envíanos tu versión de esta canción






[Blame Me chords][Blame Me cifra]
© LaCuerda.net · aviso legal · privacidad · es · en · pt · contacto