Tablatura para Guitarra de Molotov: Frijolero
Conexión · Inscripción
Letras y Acordes
Pantalla Completa
Imprimir
Versión Texto
Añadir Favorito
Otras Versiones

Mostrar Diagramas
Desfile Automático
Manipular Acordes
Formato del Texto


Frijolero(TAB)

Molotov

calidad:
molo0286
AUTOR: Ayala, Randy Ebright, Huidobro
ALBUM: Dance and Dense Denso (2003)
Enviado por Javier
en las anteriores transcripciones esta mal el intro
chequenlo y no suena igual que la cancion aqui les mando
uno que si es correcto, los acordes de las pasadas si estan
correctos; tambien mando el intro de la parte del acordeon

esto es la guitarra
e--------------------------
b--------------------------
g--------------------------
d---5-6-7-7-7-7-7-5--------
a-7-----------------8-7----
e--------------------------

y lo del acordion va asi

e-12-10-12-10-12-10-8-7-8-7-8-10-8-7-8-7-8-7---------
b--------------------------------------------8-8/10--(el 10 es
g---------------------------------------------------- vibrato)
d----------------------------------------------------
a----------------------------------------------------
e----------------------------------------------------

-12-10-12-10-12-10-8-7-8-7-8-10-8-7-8-7-8-7-8-7-8-7-8-7--------
--------------------------------------------------------8-8/10-
-----------------------------------------------------(el 10 es-
------------------------------------------------------vibrato)-
---------------------------------------------------------------
---------------------------------------------------------------
Este fichero es trabajo propio de su transcriptor y representa su interpretación personal de la canción. El material contenido en esta página es
para exclusivo uso privado, por lo que se prohibe su reproducción o retransmisión, así como su uso para fines comerciales.

© LaCuerda.net · Aviso Legal · Privacidad