Tablatura de Molotov: Changuich a la chichona
Molotov  corregir
Dance and dense denso
Transcrita por: Erick 'Scan' Espinosa
Mail: scan55@hotmail.com

Esta rola esta facil, en los versos no lleva guitarra. Tiene un bajo medio
sintetizado pero dudo que sea guitarra. Si me quedo mal, corrijanla y mandenme
un mail para saber.

1er. Coro
e-------------------------
b-------------------------
g-------------------------
d-------------------------
a-------------------------
E-------------------------

2do. Coro

e------------------------------
b------------------------------
g------------------------------
d-2------5------9------12------  x2
a-2-x16--5-x16--9-x16--12-x16--
E-0------3------7------10------

3er. Coro

e------------------------------
b------------------------------
g------------------------------
d-2------5------9------12------
a-2-x16--5-x16--9-x16--12-x16--
E-0------3------7------10------

e---------------------------------------------------------
b---------------------------------------------------------
g---------------------------------------------------------
d-2-2-0-2-0-----2-2-0-2-0-----5-5-3-5-3-----5-5-3-5-3-----
a-2---------2-0-2---------2-0-5---------5-3-5---------5-3-
E-0-------------0-------------3-------------3-------------

e---------------------------------------------
b---------------------------------------------
g---------------------------------------------
d-9-9-7-9-7-----9-9-7-9-7-----12--------------
a-9---------9-7-9---------9-7-12--------------
E-7-------------7-------------10-10-x14-11-12-

e---------------------------------------------------------
b---------------------------------------------------------
g---------------------------------------------------------
d-2-2-0-2-0-----2-2-0-2-0-----5-5-3-5-3-----5-5-3-5-3-----
a-2---------2-0-2---------2-0-5---------5-3-5---------5-3-
E-0-------------0-------------3-------------3-------------

e------------------------------------------------------
b------------------------------------------------------
g---------------------------------------------55-66-77-
d-9-9-7-9-7-----9-9-7-9-7------------55-66-77----------
a-9---------9-7-9---------9-7--55-99-------------------
E-7-------------7--------------------------------------

O tambien puede ser asi:

e----------------------------------------------------
b----------------------------------------------------
g----------------------------------------------------
d----------------------------------------------------
a-5-5--9-9--10-10--11-11--12-12--14-14--15-15--17-17-
E----------------------------------------------------

FIN
Este fichero es trabajo propio de su transcriptor y representa su interpretación personal de la canción. El material contenido en esta página es
para exclusivo uso privado, por lo que se prohibe su reproducción o retransmisión, así como su uso para fines comerciales.
© LaCuerda.net · aviso legal · privacidad · contacto